PrimaNota.ru - самый крупный в мире бесплатный архив песенных текстов, аккордов, табулатур и нот


Big Boys - Fun Fun Fun - бас-таба, видео

Регистрация Запомнить меня
Войти через:  Facebook Google Twitter Vk Yandex Mail.ru

Big Boys - Fun Fun Fun - бас-таба, видео

Печатать
Просмотров: 137
Intro (guitar only playing the verse bar twice)

Verse                           x8 
G---------------------------------|
D-------------5-6-----------------|
A-6-6-6-6-6-6-----------------5-6-|
E-----------------6-6-6-6-6-6-----|


Chorus ("Fun Fun Fun")          x3 ("Who wants em..")                x4
G---------------------------------|-----------------|------------------|
D-----------------------------5-6-|-----------------|------------------|
A---------4-4-4-4-6-6-6-6-6-6-----|---------4-4-4-4-|------------------|
E-4-4-4-4-------------------------|-4-4-4-4---------|-6-6-6-6-6-6-6--4-|


End on
G----------|
D----------|
A-6--------|
E----------|


The verse part is also played behind the solo. Also not all verses have the fill (D or A-5-6-) so
sometimes it just keep playing the A-6-6-6-6
Добавлено: 10.07.2015
Вам также может быть интересно:
Другие материалы по этой песне:
  • Аккорды и текст

Страница создана 10.07.2015
http://primanota.ru/big-boys/fun-fun-fun-chords.htm
Привет, Гость.
Предлагаем пройти революционный курс по гитаре.
Подарок от PrimaNota.Ru, забирай!