PrimaNota.ru - самый крупный в мире бесплатный архив песенных текстов, аккордов, табулатур и нот


Big Black - Heartbeat - текст песни, таба, видео

Регистрация Запомнить меня
Войти через:  Facebook Google Twitter Vk Yandex Mail.ru

Big Black - Heartbeat - текст песни, таба, видео

Печатать
Просмотров: 108
Авторы музыки: Colin Newman
Авторы текста: Colin Newman
Song Title: Heartbeat
Artist: Big Black
Album: The Rich Man's 8 track tape
-------------------------------------------------------------------------------
--------------------------------------------
Intro...muted guitar

E ----------------------------------------------
B ----------------------------------------------
G ----------------------------------------------
D ----------------------------------------------
A ----------------------------2--2-------2--2
E --0--0-------0--0--------------------------

then...

E ------------------------------------------------------------------
B -------------------------------------------------------------------
G -------------------------------------------------------------------
D --------------------------------4--4--4--4--4--4--4--4--4--4   this part is 
A --2--2--2--2--2--2--2--2--2--2--2--2--2--2--2--2--2--2     muted too
E --0--0--0--0--0--0--0--0-------------------------------------   

next...

E ------------------------------------------------------------------ 
B ------------------------------------------------------------------
G ------------------------------------------------------------------
D --4--4--4--4--4--4--4--4--4--4 ---------------------------     do this
A --2--2--2--2--2--2--2--2--2--2--2------------------------   twice
E ---------------------------------------0-------------------------

then...
E ------------------------------------------------------------------
B -------------------------------------------------------------------
G -------------------------------------------------------------------
D --------------------------------4--4--4--4--4--4--4--4--4--4  this is
A --2--2--2--2--2--2--2--2--2--2--2--2--2--2--2--2--2--2   the distorted part
E --0--0--0--0--0--0--0--0-------------------------------------  

Thats it!

Tabbed by John G (fillerbunny4@aol.com)
Send me an e-mail if you know any other Big Black songs!
     
Добавлено: 07.09.2013
Другие материалы по этой песне:
  • Аккорды и текст

Страница создана 17.05.2012
http://primanota.ru/big-black/heartbeat-chords.htm
Привет, Гость.
Предлагаем пройти революционный курс по гитаре.
Подарок от PrimaNota.Ru, забирай!