PrimaNota.ru - самый крупный в мире бесплатный архив песенных текстов, аккордов, табулатур и нот


Big Black - Big Money - аккорды и текст, таба, видео

Регистрация Запомнить меня
Войти через:  Facebook Google Twitter Vk Yandex Mail.ru

Big Black - Big Money - аккорды и текст, таба, видео

Печатать
Просмотров: 176
Уроки эстрадного вокала в Санкт-Петербурге
Big Money
Big Black
Song: Big Money
Artist: Big Black
Album: The Rich Man's Eight Track Tape
-------------------------------------------------------------------------------
------------------------------------------
First Part...

E ---------------------------------------------
B ---------------------------------------------
G --4--4----4--4--4--4----4--4--4--6--7
D --4--4----4--4--4--4----4--4--4--6--7
A --2--2----2--2--2--2----2--2--2--4--5
E ---------------------------------------------

Second part...

E ---------------------------------------------
B ---------------------------------------------
G --4--4----4--4--4--4----4--4--4--7--6
D --4--4----4--4--4--4----4--4--4--7--6
A --2--2----2--2--2--2----2--2--2--5--4
E ---------------------------------------------

Play that along with some guitar noise and thats the whole song. Enjoy!

Tabbed by John G (DyingOfEnnui@aol.com) I changed it, its no longer
fillerbunny4.

E-mail me if you know any Big Black songs!
     
Добавлено: 04.09.2013
Другие материалы по этой песне:
  • Аккорды и текст

Страница создана 08.05.2012
http://primanota.ru/big-black/big-money-chords.htm
Привет, Гость.
Предлагаем пройти революционный курс по гитаре.
Подарок от PrimaNota.Ru, забирай!