PrimaNota.ru - самый крупный в мире бесплатный архив песенных текстов, аккордов, табулатур и нот


Big Black - Bazooka Joe - текст песни, таба, видео

Регистрация Запомнить меня
Войти через:  Facebook Google Twitter Vk Yandex Mail.ru

Big Black - Bazooka Joe - текст песни, таба, видео

Печатать
Просмотров: 114
Уроки эстрадного вокала в Санкт-Петербурге
-------------------------------------------------------------------------------
                             Bazooka Joe - Big Black
-------------------------------------------------------------------------------

Tuning: Standard

Main riff:

e|---------------------------------------------------------------------------|
B|---------------------------------------------------------------------------|
G|---------------------------------------------------------------------------|
D|-------------------3-2-0-0---------------------------5-5-5-5-5-5-----------|
A|-5--2--5--2--5--2----------2-0----5--2--5--2--5--2---5-5-5-5-5-5-----------|
E|-----------------------------------------------------3-3-3-3-3-3-----------|

Verses:

e|---------------------------------------------------------------------------|
B|---------------------------------------------------------------------------|
G|---------------------------------------------------------------------------|
D|-(8)/9-9-9-9-9-9-9-9-9-9-9-9-9-9-9-9-9-9-9-9-9---5-5-5-5-5-5---------------|
A|-(8)/9-9-9-9-9-9-9-9-9-9-9-9-9-9-9-9-9-9-9-9-9---5-5-5-5-5-5---------------|
E|-(6)/7-7-7-7-7-7-7-7-7-7-7-7-7-7-7-7-7-7-7-7-7---3-3-3-3-3-3---------------|


************************************

| /   slide up
| \   slide down
| h   hammer-on
| p   pull-off
| ~   vibrato
| +   harmonic
| x   Mute note
| b   Bend
| pb  Pre-bend
| br  Bend release
| pbr Pre-bend release
| brb Bend release bend

************************************
Добавлено: 15.12.2015
Другие материалы по этой песне:
  • Аккорды и текст

Страница создана 26.06.2012
http://primanota.ru/big-black/bazooka-joe-chords.htm
Привет, Гость.
Предлагаем пройти революционный курс по гитаре.
Подарок от PrimaNota.Ru, забирай!