PrimaNota.ru - самый крупный в мире бесплатный архив песенных текстов, аккордов, табулатур и нот


Big Bill - Juice U - таба, видео

Регистрация Запомнить меня
Войти через:  Facebook Google Twitter Vk Yandex Mail.ru

Big Bill - Juice U - таба, видео

Печатать
Просмотров: 112
Уроки эстрадного вокала в Санкт-Петербурге
-------------------------------------------------------------------------------
                             Juice U - Big Bill
-------------------------------------------------------------------------------

Tuning: Standard

intro:
e|---------------------------------------------------------------------------|
B|---------------------------------------------------------------------------|
G|----5---5-7-7-7-7b-7----5---5-7-7-7-9-7------------------------------------|  2x
D|--3---3---------------3---3------------------------------------------------|
A|---------------------------------------------------------------------------|
E|---------------------------------------------------------------------------|

no guitar

Wipe the sweat from the holy brow 
I'm gonna pray to the holy cow 
I'm gonna drink from the holy teat 
I'm gonna grow big big white teeth 

e|---------------------------------------------------------------------------|
B|---------------------------------------------------------------------------|
G|---------------------------------------------------------------------------|
D|---------------------------------------------------------------------------|
A|--5--5-5--5--5-5--5--5-5--5--5-5-------------------------------------------|
E|---------------------------------------------------------------------------|
I'm gonna juice you babe
I;m gonna juice you girl

e|--5-5-5-3-3-3-5-5-5-3-3-3--------------------------------------------------|
B|--7-7-7-5-5-5-7-7-7-5-5-5--------------------------------------------------|
G|--7-7-7-5-5-5-7-7-7-5-5-5--------------------------------------------------|
D|--7-7-7-5-5-5-7-7-7-5-5-5--------------------------------------------------|
A|--5-5-5-3-3-3-5-5-5-3-3-3--------------------------------------------------|
E|--5-5-5-3-3-3-5-5-5-3-3-3--------------------------------------------------|
I'm gonna juice ya
I'm gonna juice ya

e|---------------------------------------------------------------------------|
B|---------------------------------------------------------------------------|
G|----5---5-7-7-7-7b-7----5---5-7-7-7-9-7------------------------------------|  2x
D|--3---3---------------3---3------------------------------------------------|
A|---------------------------------------------------------------------------|
E|---------------------------------------------------------------------------|

no guitar

Listen once, listen twice, I'm gonna give you some life advice 
Follow follow follow follow follow your thirst 
If you never do it'll only get worse

e|---------------------------------------------------------------------------|
B|---------------------------------------------------------------------------|
G|---------------------------------------------------------------------------|
D|---------------------------------------------------------------------------|
A|--5--5-5--5--5-5--5--5-5--5--5-5-------------------------------------------|
E|---------------------------------------------------------------------------|
I'm gonna juice you babe
I;m gonna juice you girl

e|--5-5-5-3-3-3-5-5-5-3-3-3--------------------------------------------------|
B|--7-7-7-5-5-5-7-7-7-5-5-5--------------------------------------------------|
G|--7-7-7-5-5-5-7-7-7-5-5-5--------------------------------------------------|
D|--7-7-7-5-5-5-7-7-7-5-5-5--------------------------------------------------|
A|--5-5-5-3-3-3-5-5-5-3-3-3--------------------------------------------------|
E|--5-5-5-3-3-3-5-5-5-3-3-3--------------------------------------------------|
I'm gonna juice ya
I'm gonna juice ya

Solo

e|--5-5-5-3-3-3-5-5-5-3-3-3--------------------------------------------------|
B|--7-7-7-5-5-5-7-7-7-5-5-5--------------------------------------------------|
G|--7-7-7-5-5-5-7-7-7-5-5-5--------------------------------------------------|
D|--7-7-7-5-5-5-7-7-7-5-5-5--------------------------------------------------|
A|--5-5-5-3-3-3-5-5-5-3-3-3--------------------------------------------------|
E|--5-5-5-3-3-3-5-5-5-3-3-3--------------------------------------------------|
I'm gonna juice ya
I'm gonna juice ya

e|---------------------------------------------------------------------------|
B|---------------------------------------------------------------------------|
G|--5-5-5-5-5-5-5-5-5-5------------------------------------------------------|
D|--3-3-3-3-3-3-3-3-3-3------------------------------------------------------|
A|---------------------------------------------------------------------------|
E|---------------------------------------------------------------------------|
Wipe the sweat from the holy brow 
I'm gonna pray to the holy cow 
I'm gonna drink from the holy teat 
I'm gonna grow big big white teeth 

no guitar

I'm gonna juice you babe
I;m gonna juice you girl

e|--5-5-5-3-3-3-5-5-5-3-3-3--------------------------------------------------|
B|--7-7-7-5-5-5-7-7-7-5-5-5--------------------------------------------------|
G|--7-7-7-5-5-5-7-7-7-5-5-5--------------------------------------------------|
D|--7-7-7-5-5-5-7-7-7-5-5-5--------------------------------------------------|
A|--5-5-5-3-3-3-5-5-5-3-3-3--------------------------------------------------|
E|--5-5-5-3-3-3-5-5-5-3-3-3--------------------------------------------------|
I'm gonna juice ya
I'm gonna juice ya
Добавлено: 25.11.2015
Другие материалы по этой песне:
  • Аккорды и текст

Страница создана 25.11.2015
http://primanota.ru/big-bill/juice-u-chords.htm
Привет, Гость.
Предлагаем пройти революционный курс по гитаре.
Подарок от PrimaNota.Ru, забирай!