PrimaNota.ru - самый крупный в мире бесплатный архив песенных текстов, аккордов, табулатур и нот


Big Bang - Wild Bird Live - таба, видео

Регистрация Запомнить меня
Войти через:  Facebook Google Twitter Vk Yandex Mail.ru

Big Bang - Wild Bird Live - таба, видео

Печатать
Просмотров: 104
------------------------------------------------------------------------------
           WILD BIRD Live (Radio Radio TV Sleep) - BigBang
------------------------------------------------------------------------------
Tabbed by: Bård Husby	
Email: husby[at]gmail[dot]com

I couldn't find any decent Wild Bird tab on the net, so I made this
based on the Radio Radio TV Sleep Live version.
This tab has a pure intention of guiding you through the song, and is
not supposed to be 100% accurate.
The rest is up to you to figure out :)

Regular tuning - Capo at sixth (6) fret

e|---2-----------------------------0>---------------------------0>-----------|
B|----0----------------------------0>---------------------------0>-----------|
G|-----4---------------------------4>---------------------------4>-----------|
> = find a suitable picking pattern
D|------4--------------------------2>---------------------------5>-----------|
A|---------------------------------------------------------------------------|
E|---------------------------------------------------------------------------|
          Wild bird flying, sing a song I can capture, and I'll make it

                    riff:
e|---2-----0------|-------------0--0h2p0----5----4p0----2----0h2-2-----------|
B|---0-----0------|----0--0h2/3-0--0-----------0------0-0----0---0-----------|
G|---0-----0------|----4-----------4-----4-----4------4----4-4-------repeat--|
D|---2-----2------|----4-----------------------------------------------------|
A|----------------|----------------------------------------------------------|
E|----------------|----------------------------------------------------------|
     up to you somehow


Chord progression for verse:
e|------2---------0-------0-2------2---0-------------------------------------|
B|------0---------0-------0-0------0---0-----play riff-----------------------|
G|------4---------4-------4-4------0---0-------------------------------------|
D|------4---------2-------5-5------2---2-------------------------------------|
A|---------------------------------------------------------------------------|
E|---------------------------------------------------------------------------|
      listen to the record to get this properly

Bridge:
e|---0-------------------0-----------|---------------------------------------|
B|---3-------------------x-----------|------------------------------------3--|
G|---2-------------------2-----------|----4-------------------------------4--|
D|---0-------------------2-----------|----4-------4--------4-------4------4--|
A|-----------------------4-----------|----2-------2--------2-------2------2--|
E|-----------------------------------|------0--2-----0--2-----0--2---0--2----|
   He was singing out of range                                        
   __Wild bird flying

Chorus:
e|--------3---------------------------3-------0-----------2------------------|
B|(3)-----0---------------------------0-------0------------3-----------------|
G|(4)-----0---------------------------0-------2-------------4----------------|
D|(4)-----2---------------------------0-------2--------------4---------------|repeat
A|(2)-----2---------------------------2-------0---------------2--------------|
E|--------0---------------------------3-------x------------------------------|
   sing a song I can capture and I'll make it up to you  _______Wild bird....


e|--2---------0------------0---0h2/3\2-0-|---3--------------0-------0--0h2/3\2
0-|
B|--3---------0------------0v----------0-|---0--------------0-------0----------0-|
G|--4---------2------------0v------------|---0--------------2-------0------------|
D|--4---------2------------2v------------|---0--------------2-------2------------|repeat
A|--2---------0------------2v------------|---2--------------0-------2------------|
E|-------------------------0v------------|---3----------------------0------------|
   If you can understand...             Gonna make it up to you somehow  


Back to verse

Ending
e|----2----------0---------3-------3---0--|
B|----3----------3---------0-------0---0--|
G|----4----------2---------0-------0---2--|x2
D|----4----------0---------2-------0---2--|
A|----2--------------------2-------2---0--|
E|-------------------------0-------3------|
    wild..      wild..     wild ..

| /  slide up
| \  slide down
| h  hammer-on
| p  pull-off
| ~  vibrato
| +  harmonic
| x  Mute note
| v  Hold


That's about it. Comments? Email me. Thanks. 
I declare that this is purely my own work.
===============================================================================
     
Добавлено: 07.06.2013
Другие материалы по этой песне:
  • Аккорды и текст

Страница создана 07.06.2013
http://primanota.ru/big-bang/wild-bird-live-chords.htm
Привет, Гость.
Предлагаем пройти революционный курс по гитаре.
Подарок от PrimaNota.Ru, забирай!