PrimaNota.ru - самый крупный в мире бесплатный архив песенных текстов, аккордов, табулатур и нот


Big Bang - Wild Bird - таба, видео

Регистрация Запомнить меня
Войти через:  Facebook Google Twitter Vk Yandex Mail.ru

Big Bang - Wild Bird - таба, видео

Печатать
Просмотров: 245
Уроки эстрадного вокала в Санкт-Петербурге
Bigbang – Wild Bird 

Transcribed by: Jarle Solheim

H = Hammer on
P = Pull off
S = Slide

Standard tuning
Capo 4th fret, chords written relative to capo

Tabs are based on an acoustic version, but is almost identical to the album version.

  Intro:

     Wild bird flying, sing a song... 
e ----0h2---------------------3---2-0-----------------|
B ---0-------------------------0-----0------3-------0-|
G --4---------------------------0-----0----2------2---|
D -4------------------------2------------0------0-----|
A --------------------------------------------4-------|
E ----------------------------------------------------|

   Main riff:
   (Here your fingering is important; keep your middle and ring finger
    on the D and G string on the 4th fret)
   4x:
e ----2------0-0h2------5-4p0------0h2-----|
B ---0—0h2s3------0----0-0---0----0---0----|
G --4-----------------4----------4---------|
D -4---------------4-4--------4--------4---|
A -----------------------------------------|
E -----------------------------------------|

  Verse:
 
   Well high my hat...
e ----2---------------0--------0----3-----2-0------|
B ---0---------------0--------3-------0-------0----|
G --4---------------2--------0----------0-------0--|
D -4---------------4------5-5------2---------------|
A -------------------------------------------------|
E -------------------------------------------------|

   |Main riff 2x|

  Little bird...                             And I got lost...
e ----2------------0--------0----3--2-0----------0-----------0---------2-|
B ---0------------0--------3------0----0-----3-----3-----3-----3------0--|
G --4------------2--------0--------0-----------2-----2-----2-----2---4---|
D -4------------4------5-5------2--------2-0------------------------4----|
A -----------------------------------------------------4-----------------|
E -----------------------------------------------------------------------|

  |Main riff 2x|

   He couldn't pick me up...
e ----2---------------0--------0----3-----2-0------|
B ---0---------------0--------3-------0-------0----|
G --4---------------2--------0----------0-------0--|
D -4---------------4------5-5------2---------------|
A -------------------------------------------------|
E -------------------------------------------------|

   |Main riff|

   Em                  G       A         Bsus4
      He was singin out of range
e ---0-----------------3-------0---------0-------0------0--|
B ---0-----------------3-------2---------0-------0------0--|
G ---0-----------------0-------2---------4-------4------4--|
D ---2-----------------0-------2---------4-------4------4--|
A ---2-----------------2-------0---------2-----0-2----0-2--|
E ---0---------------2-3-----------------------------------|

   Chorus:
    (Bsus4)                  Em                   G        A
    Wild bird flying, Sing a song I can't capture...
e --0------------------------0--------------------3---------0---|
B --0------------------------0--------------------3---------2---|
G --4------------------------0--------------------0---------2---|
D --4------------------------2--------------------0---------2---|
A --2------------------------2--------------------2---------0---|
E ---------------------------0------------------2-3-------------|

    (Bsus4)        Em   D    D/C#  D/B   A           
  Wild bird flying...
e --0--------------0---------------------------|
B --0--------------0------3----3-----3------2--|
G --4--------------0-----2----2-----2------2---|
D --4--------------2----0-----------------2----|
A --2--------------2---------4-----2-----0-----|
E -----------------0---------------------------|

    Em  Em9        G      A   2x
   If you can't...
e --0----2--0------3------0---------2---|
B --0----0---0-----3------2---------0---|
G --0----0---------0------2---------4---|
D --2----2---------0------2---------4---|
A --2----2---------2------0-------------|
E --0----0-------2-3--------------------|

 |Main riff 2x|

 Then the same verse and chord pattern repeats itself
Добавлено: 18.06.2012
Другие материалы по этой песне:
  • Аккорды и текст

Страница создана 18.06.2012
http://primanota.ru/big-bang/wild-bird-chords.htm
Привет, Гость.
Предлагаем пройти революционный курс по гитаре.
Подарок от PrimaNota.Ru, забирай!