PrimaNota.ru - самый крупный в мире бесплатный архив песенных текстов, аккордов, табулатур и нот


Big Bang - To The Mountains - таба, видео

Регистрация Запомнить меня
Войти через:  Facebook Google Twitter Vk Yandex Mail.ru

Big Bang - To The Mountains - таба, видео

Печатать
Просмотров: 174
To The Mountains


Author/Artist: Bigbang
Album: Clouds Rolling By
Transcribed by: Petter Danielsen
Email: petterd33@hotmail.com

Notes:

"Dropped-D tuning" (upper E down to D)

b - bend
h - hammer on
p - pull-off
r - release bend
/ - slide


------------------------------------------------------------------------------|
------------------------------------------------------------------------------|
--x---------------------------------------------------------------------------|
--x---3--5------------0----0--------3--5------------0-----3--5-------0---0----|
--x---3--5----------0------0--------3--5------------0-----3--5-----0-----0----|
--x---3--5--------3------0----------3--5----3b4--0--------3--5---3-----0------|


------------------------------------------------------------------------------|
------------------------------------------------------------------------------|
--------------------------------------------5--7-------------5----------------|
--3--5------------0-------------------5--7--0--0----------5-----5h7p5p0-------|
--3--5------------0-------------5--8----------------5--8----------------------|
--3--5-----3b5r3--0-------------0--0----------------0--0----------------------|


------------------------------------------------------------------------------|
------------------------------------------------------------------------------|
--------------5--7-------------------------------------5--7-------------------|
--------5--7--0--0----------5----3--5--3---------5--7--0--0------------5--7---|
--5--8----------------5--8-------3--5--3---5--8------------------5--8---------|
--0--0----------------0--0-------3--5--3---0--0------------------0--0---------|
                                 you gotta dig,             your body and

------------------------------------------------------------------------------|
------------------------------------------------------------------------------|
------------5----4------------------5--7--------------------------------------|
------------0----0------------5--7--0--0----------5----3--5--3---------5--7---|
------------------------5--8----------------5--8-------3--5--3---5--8---------|
------------------------0--0----------------0--0-------3--5--3---0--0---------|
  your head down in the snow,                          you gotta tie_____

------------------------------------------------------------------------------|
------------------------------------------------------------------------------|
--5--7-------------------------------5--------------------5--7----------------|
--0--0-------------5--7--------------0--------------5--7--0--0----------5--7--|
-------------5--8-----------------------------5--8----------------5--8--------|
-------------0--0-----------------------------0--0----------------0--0--------|
        your scarf around my pole to let them know

------------------------------------------------------------------------------|
------------------------------------------------------------------------------|
------------------------------------------------------------------------------|
-----------------5-5-5-5--5-5-5-5-------5-5-5-5--------5-5-5--x--3------------|
--0--------------5-5-5-5--5-5-5-5-------5-5-5-5--------5-5-5--x--3------------|
--0--------------5-5-5-5--5-5-5-5-------5-5-5-5--------5-5-5--x--3------------|
     and I gotta take              your arms around my waist and you'll take

------------------------------------------------------------------------------|
------------------------------------------------------------------------------|
--------------5--7----------------5--7----------------------------------------|
--------5--7--0--0----------5--7--0--0-----------10-10-10-10-10-10-10-10------|
--5--8----------------5--8-----------------------10-10-10-10-10-10-10-10------|
--0--0----------------0--0-----------------------10-10-10-10-10-10-10-10------|
  mine                                  we gotta move_______________________

------------------------------------------------------------------------------|
------------------------------------------------------------------------------|
----------------------------------------------------5--7------------5---------|
------10-10-10-10-----8-8-8-8-----------------5--7--0--0----------5---5h7p5p0-|
------10-10-10-10-----8-8-8-8-----------5--8----------------5--8--------------|
-------9--9--9--9-----8-8-8-8-----------0--0----------------0--0--------------|
  our fingers and our toes and we'll be fine

------------------------------------------------------------------------------|
------------------------------------------------------------------------------|
--------------5--7------------------------------------------------------------|
--------5--7--0--0--------0------------------0--0--0--0--0--0--0--0-----------|
--5--8--------------------0---3-0h2p0--------0--0--0--0--0--0--0--0-----------|
--0--0-----------------0--0-----------0h3p0--0--0--0--0--0--0--0--0-----------|
                                             your just a poor little city boy

------------------------------------------------------------------------------|
------------------------------------------------------------------------------|
------------------------------------------------------------------------------|
--3--3--3--3--3--3--3--3------------------5--5--5--5--5--5--5--5-----0--0-----|
--3--3--3--3--3--3--3--3------------------5--5--5--5--5--5--5--5-----0--0-----|
--3--3--3--3--3--3--3--3------------------5--5--5--5--5--5--5--5--0--0--0-----|
  you don't even know what you're missing I say welcome to the    mountains

------------------------------------------------------------------------------|
------------------------------------------------------------------------------|
------------------------------------------------------------------------------|
--------------------------0--0--0--0--0--0--0--0----------------3--3--3--3----|
--2h3p2--0h2p0------------0--0--0--0--0--0--0--0----------------3--3--3--3----|
----------------3p0-------0--0--0--0--0--0--0--0----------------3--3--3--3----|
                      and you're just a skinny little city girl you don't

------------------------------------------------------------------------------|
------------------------------------------------------------------------------|
------------------------------------------------------------------------------|
--3--3--3--3-------------------5--5--5--5--5--5--5--5-----0-------------------|
--3--3--3--3-------------------5--5--5--5--5--5--5--5-----0-------------------|
--3--3--3--3-------------------5--5--5--5--5--5--5--5--0--0-------------------|
  even know who you're kissing I say welcome to the    mountains

------------------------------------------------------------------------------|
------------------------------------------------------------------------------|
------------------------------------------------------------------------------|
------------------0----0--------3--5-------0----0-----3--5--------------------|
----------------0------0--------3--5------------0-----3--5---------0----------|
--3--5--------3------0----------3--5----3----0--------3--5---3b5r--0----------|


------------------------------------------------------------------------------|
------------------------------------------------------------------------------|
-------------------5--7----------------5--7-----------------------------------|
-------------5--7--0--0----------5--7--0--0--------------------5--7-----------|
-------5--8----------------5--8--------------------------5--8-----------------|
-------0--0----------------0--0--------------------------0--0-----------------|
  hang on hang on           you better put some wool on    we'll see the

------------------------------------------------------------------------------|
------------------------------------------------------------------------------|
------5--7-------------------------------------------5--7----------------5--7-|
------0--0----------------5--3--5--3-----------5--7--0--0----------5--7--0--0-|
--------------------5--8-----3--5--3-----5--8----------------5--8-------------|
--------------------0--0-----3--5--3--0--0--0----------------0--0-------------|
  pinetreetops from high above          a come on_______     move up to the

------------------------------------------------------------------------------|
------------------------------------------------------------------------------|
----------------------------5--7----------------------------5-----------------|
-------------------5--7-----0--0-------------------5--7-----0-----------------|
-------------5--8----------------------------5--8-----------------------------|
-------------0--0----------------------------0--0-----------------------------|
  mountains    and if we're lucky we'll come back alive

------------------------------------------------------------------------------|
------------------------------------------------------------------------------|
------------------------------------------------------------------------------|
-----------------5-5-5-5--5-5-5-5-------5-5-5-5--------5-5-5-----3------------|
-----------------5-5-5-5--5-5-5-5-------5-5-5-5--------5-5-5-----3------------|
-----------------5-5-5-5--5-5-5-5-------5-5-5-5--------5-5-5-----3------------|
     and I gotta take              your arms around my waist and you'll take

------------------------------------------------------------------------------|
------------------------------------------------------------------------------|
--------------5--7----------------5--4----------------------------------------|
--------5--7--0--0----------5--7--0--0-----------10-10-10-10-10-10-10-10------|
--5--8----------------5--8-----------------------10-10-10-10-10-10-10-10------|
--0--0----------------0--0-----------------------10-10-10-10-10-10-10-10------|
  mine                                  we gotta move_______________________

------------------------------------------------------------------------------|
------------------------------------------------------------------------------|
----------------------------------------------------5--7----------------5-----|
------10-10-10-10-----8-8-8-8-----------------5--7--0--0----------5--7--0--0--|
------10-10-10-10-----8-8-8-8-----------5--8----------------5--8-----------0--|
-------9--9--9--9-----8-8-8-8-----------0--0----------------0--0-----------0--|
  our fingers and our toes and we'll be fine

------------------------------------------------------------------------------|
------------------------------------------------------------------------------|
------------------------------------------------------------------------------|
--10-x-10-x-8-8--3-3--------0--------10-x-10-x-8-8--3-3--------0--------------|
--10-x-10-x-8-8--3-3--------0--------10-x-10-x-8-8--3-3--------0--------------|
--10-x--9-x-8-7--3-3-5p3-0--0--------10-x--9-x-8-7--3-3-5p3-0--0--------------|


------------------------------------------------------------------------------|
-------------------------------------15---15----15----------------------------|
-------------------------------------17b------------17b--14-------------------|
--10-x-10-x-8-8--3-3--------0------------------------------------------15-----|
--10-x-10-x-8-8--3-3--------0-----------------------------------15h17------17-|
--10-x--9-x-8-7--3-3-5p3-0--0-------------------------------------------------|


------------------------------------------------------------------------------|
------------------------------------------------------------------------------|
---------17p15----------------------------------------------------------------|
--17p15---------17p15--17/19----------------------------------12------12/15---|
------------------------------17p15--15-15-15-15-15-15-15-15------15----------|
------------------------------------------------------------------------------|


------------------------------------------------------------------------------|
------------------------------------------------------------------------------|
---------------------5--7---------5--7p5---------------------5-----------15---|
-------------3--5p3----------5h7----------7p5--------3--5/7-------15h17-------|
--17----3h5------------------------------------7--5---------------------------|
------------------------------------------------------------------------------|


------------------------------------------------------------------------------|
--15h18p15h18/20--20b--20b--18--15--18--15-15---------------------------------|
--------------------------------------------------------17--15----------------|
-------------------------------------------------15h17----------17p15--12-----|
------------------------------------------------------------------------------|
------------------------------------------------------------------------------|


------------------------------------------------------------------------------|
---------------10-------------------------------------------------------------|
------------------------------------------------------------------------------|
--10----10h12-------------15-------15-------15-------15h17p15--------------15-|
--------------------15h17----15h17----15h17----15h17----------17p15--15h17----|
------------------------------------------------------------------------------|
                     you're just a poor little city boy              you don'

------------------------------------------------------------------------------|
------------------------------------------------------------------20--18--15--|
------------------------------------------------19-------19-------------------|
--------15-------15-------15h17p15--------17h19----17h19----17h19-------------|
--15h17----15h17----15h17----------17p15--------------------------------------|
------------------------------------------------------------------------------|
  know what your missing                  I say welcome to the mountains

------------------------------------------------------------------------------|
------------------------------------------------------------------------------|
--19--17--14h17p14-------------------------------------------------17b--17b---|
--------------------15h17--12----------15--17---------------------------------|
-------------------------------15--17-----------------------------------------|
------------------------------------------------------------------------------|
                              your just a skinny little city girl you don't

------------------------------------------------------------------------------|
------------------------------------------------------------------------------|
--15--17b-15--17b-15----------------------------------------------------------|
-----------------------------15h17--15--14--15p14-----------------------------|
---------------------------------------------------17--15--17----3h5--3--0----|
----------------------------------------------------------------------------0-|
  even know who your kissing I say welcome to the mountains

------------------------------------------------------------------------------|
------------------------------------------------------------------------------|
------------------------------------------------------------------------------|
--0--0--0--0--0--0--0--0--3--3--3--3--3--3--3--3---5--5--5--5--5--5--5--5-----|
--0--0--0--0--0--0--0--0--3--3--3--3--3--3--3--3---5--5--5--5--5--5--5--5-----|
--0--0--0--0--0--0--0--0--3--3--3--3--3--3--3--3---5--5--5--5--5--5--5--5-----|
  and if you wanna get    high________close to the sky___________________

------------------------------------------------------------------------------|
---------------------15--17--17h18--17--15------------------------------------|
--------------------------------------------17--14----------------------------|
----------------------------------------------------15-------------15---------|
--------------------------------------------------------17--15h17------15h17--|
-----------------0------------------------------------------------------------|
  welcome to the mountains                             and if you wanna get

------------------------------------------------------------------------------|
------------------------------------------------------------------------------|
------------------------------------------------------------------------------|
--15---------15h17p15------15---15-------------------------0------------------|
------15h17------------17---------------15h17-15-----------0------------------|
--------------------------------------------------19--17-0-0------------------|
  high_______ close to the sky________  welcome to the mountains

------------------------------------------------------------------------------|
------------------------------------------------------------------------------|
------------------------------------------------------------------------------|
--x---3--5------------0----0--------3--5--------0----0------------------------|
--x---3--5----------0------0--------3--5------0------0------------------------|
--x---3--5--------3------0----------3--5----3--------0------------------------|
Добавлено: 14.06.2012
Другие материалы по этой песне:
  • Аккорды и текст

Страница создана 14.06.2012
http://primanota.ru/big-bang/to-the-mountains-chords.htm
Привет, Гость.
Предлагаем пройти революционный курс по гитаре.
Подарок от PrimaNota.Ru, забирай!