PrimaNota.ru - самый крупный в мире бесплатный архив песенных текстов, аккордов, табулатур и нот


Big Bang - Frontside Rock N Roll - таба, видео

Регистрация Запомнить меня
Войти через:  Facebook Google Twitter Vk Yandex Mail.ru

Big Bang - Frontside Rock N Roll - таба, видео

Печатать
Просмотров: 230
Frontside rock 'n'roll (acoustic version)

Album: Radio Radio TV Sleep
Transcribed by: Jarle Solheim

H = Hammer on
P = Pull off
S = Slide

Tuning (equal to CD): C G C G A d 

Intro:

d ------------5---------------------------------|
A -----3--------3-----3-----1---------1-----1---|
G -------0--------0-----0-----0---------------0-|
C ----------------------------------0-----------|
G -3s5-----5--------5-----3-----3-2-----3h2-----|
C ----------------------------------------------|

d ---------------------------------------------------------------------|
A -------3------3----3h5-----3-----5p3-----1-------1-------1-------1---|
G -------------------------------------------------------0-----0h2---0-|
C -----0------0---0--------0-----0-------2-------2---2-3-----3---------|
G -3s5------5------------5-----5-------0-----0-0-----------------------|
C ---------------------------------------------------------------------|

d ----------------------------------------------------------|
A --------3-----3---5-3---5p3-----1-------1-------1-------1-|
G -----------------(0)--------------------------0-----0h2---|
C -------0----0---0------0------2-------2---2-3-----3-------|
G -3-3s5----5-----------5-----0-----0-0---------------------|
C ----------------------------------------------------------|

Verse :
               You don't have to...(repete 3x)
d ----------------------------------------------------------------------|
A ---------3-------3-------3-------3--------1-------1-------1-------1---|
G -------0---0---0---0---0---0---0---0--------------------0-----0h2---0-|
C ----------------------------------------2-------2---2-3-----3---------|
G -3-3s5-------5-------5-------5--------0-----0-0-----------------------|
C ----------------------------------------------------------------------|
              You really don't mean to
              Just because I

             I am going too..
d -----------------------------------------------------------------|
A -------3-------3-------3-------3-------3-------3-------3-------3-|
G -----0---0---0---0---0---0---0---0---0---0---0---0---0-------0---|
C -----------------------------------------------------------------|
G -----------------------------------------------------------------|
C -2-3-------3-------2-------2-------0-------0-------0-----0-2-----|

             I am going too..
d -------------------------------------------------------------------|
A -------3-------3-------3-------3-------3-------3-------3-------0---|
G -----0---0---0---0---0---0---0---0---0---0---0---0---0-------0---0-|
C -------------------------------------------------------------------|
G -------------------------------------------------------------------|
C -2-3-------3-------2-------2-------0-------0-------0-----2-3-------|

Chorus 1:
(part 1)
          Now all the flowers have been broken
d -----------------------------------------------------------------|
A -----1-------1-------3-------3-------3-------3-------3-------3---|
G -------------------0---0---0---0---0---0---0-------0-------0---0-|
C ---2-------2-----------------------------------------------------|
G -0-----0-0-----2-3-------3---------------------------------------|
C ---------------------------------3-------3-----3-2-----2-3-------|
(part 2)
           But we watched them for a while..
d -------------------------------------3-------3-------3---3-------|
A -----1-------1-------3-------3---------3-------3-------3---3---3-|
G -------0-----------0---0---0---0---0-------0-------0---------0---|
C ---2-------2---------------------0-------0-------0---------------|
G -0-------0-----2-3-------3---------------------------------------|
C -----------------------------------------------------------------|

(part 1)   And we know you got your token

(part 3)   So go on, don't miss your last..
d -------------------------------------3-------3-------3--------3---1-------|
A -----1-------1-------3-------3---------3-------3-------3--------3---3-----|
G -------0-----------0---0---0---0---0-------0-------0--------0---------0---|
C ---2-------2---------------------0-------0-------0--------0-------------0-|
G -0-------0-----2-3-------3------------------------------------------------|
C --------------------------------------------------------------------------|

d -1-----0-----------0-|
A ---3-----3-------3---|
G -----0-----0---0-----|
C -------------0-------|
G ---------------------|
C ---------------------|

  Riff:

d -----------------------------3----------------------------0-------|
A -----1-------1-------3s1-------1—-3h5-3h5p3-1---------3-----3---3-|
G ----------------------------------(0)---------0-----0---0-----0---|
C ---2-------2-----2s4-------2--------------------------------------|
G -0-----0-0-----0---------0----------------------------------------|
C ---------------------------------0---0----------3s5---------------|

d -----------------------------3------------------------------------|
A -----1-------1-------3s1-------1—-3h5-3h5p3-1---------3-------3---|
G ----------------------------------(0)---------0-----0---0---0---0-|
C ---2-------2-----2s4-------2--------------------------------------|
G -0-----0-0-----0---------0----------------------------------------|
C ---------------------------------0---0----------3s5-------5-------|

Chorus 2:

part1: Another life inside the mirror
part2: Over big blue distant seas..
part1: Some find joy among the horror
part3: Then we'll slip in, evetually..

Riff (play harder):

d -----------------------------3------------------------------------|
A -----1-------1-------3s1-------1—-3h5-3h5p3-1--------3-3----------|
G ----(0)-----(0)-------------------(0)---------0------0-0----------|
C ---2-------2-----2s4-------2-------------------------0-0----------|
G -0-----0-0-----0---------0---------------------------x-x----------|
C ---------------------------------0---0----------3s5--5-5----------|

d -----------------------------3------------------------------------|
A -----1-------1-------3s1-------1—-3h5-3h5p3-1---------3-------3---|
G ----------------------------------(0)---------0-----0---0---0---0-|
C ---2-------2-----2s4-------2--------------------------------------|
G -0-----0-0-----0---------0----------------------------------------|
C ---------------------------------0---0----------3s5-------5-------|

Chorus 3:

part1: So, have a ball with all the mermaids

           And here's a line I wrote for you..
d -------------------------------------3-------3----3-2-0--------|
A -----1-------1-------3-------3---------3-------3--------3------|
G -------0-----------0---0---0---0---0-------0--------------0----|
C ---2-------2---------------------0-------0------------------0--|
G -0-------0-----2-3-------3-------------------------------------|
C ---------------------------------------------------------------|

part1: Hit the spine backside disaster
part3: And exit frontside rock n' roll..

Outro:

d -----------------------------3--------------------------------------0-|
A -----1-------1-------3s1-------1—-3h5-3h5p3-1--------3-3-3--------0---|
G ----(0)-----(0)-------------------(0)---------0------0-0-0------0-----|
C ---2-------2-----2s4-------2-------------------------0-0-0----2-------|
G -0-------0-----0---------0---------------------------x-x-x—-0---------|
C ---------------------------------0--------------3s5--5-5-5------------|
Добавлено: 13.05.2012
Другие материалы по этой песне:

Страница создана 20.04.2012
http://primanota.ru/big-bang/frontside-rocknroll-chords.htm
Привет, Гость.
Предлагаем пройти революционный курс по гитаре.
Подарок от PrimaNota.Ru, забирай!