PrimaNota.ru - самый крупный в мире бесплатный архив песенных текстов, аккордов, табулатур и нот


Big Bang - Cant Find My Way Home - таба, видео

Регистрация Запомнить меня
Войти через:  Facebook Google Twitter Vk Yandex Mail.ru

Big Bang - Cant Find My Way Home - таба, видео

Печатать
Просмотров: 222
Bigbang - Can't find my way home (originally by Steve Winwood)

Based on live acoustic version from Radio Radio TV Sleep

Tuning: D A D G B e

h= hammer on
s= slide
p= pull off
()= played softly

   DADGHe
F (3x321x)
G (5x543x)

   Intro:

   D/C	      D/B	      D/Bb	 D/A	  F
e ------3p2-----------5--------------------------------------|
B ----(3)--3--------3---3---3------3-3--------3---------0h1--|
G ---(0)----0-----0-------0------0----------2---2------(2)---|
D ---------------------------------------------------(3------|
A –-3----------2--------------1--------s3-0------------------|
D ----------------------------------------------0-2-3--------|
        G             D
e ---------------------------------------|
B –1s3--3---3-----------3-----------3----|
G –2s4—(4)-(4)--------2---2---0h2---2----|
D –3s5—(5)-(5)--------------3-----0-0----|
A ---------------------------------------|
D -------------3p0-0---------------------|

Verse:

   Oh come down..
   D/C	      D/B    D/Bb    D/A	F            G       D
e --------------------------------------------------------------------------|
B -----3---------3-------3-------3------------1-------3--------3----------3-|
G ---0---0-----0---0---0---0---2---2------------2-------4----2---2---0h2—-2-|
D ------------------------------------------3-------5--------------3------0-|
A -3---------2-------1-------0----------------------------------------------|
D ------------------------------------0-2-3--------5-------0-------------0--|
       You are the reason..
   D/C	      D/B    D/Bb    D/A	F            G       D
e ------------------------------------------------------------------------------|
B ---------3---------3-------3-------3------------1-------3--------3----------3-|
G -------0---0-----0---0---0---0---2---2------------2-------4----2---2---0h2—-2-|
D ----------------------------------------------3-------5--------------3------0-|
A –0-2-3---------2-------1-------0----------------------------------------------|
D ----------------------------------------0-2-3--------5-------0------------0---|

Intro
Verse

Chorus:

	Well I'm near the end..
   Em9/B           A7                  D
e --------------------------------------------------------|
B ---------------------2---------2---------3---------3----|
G -----0-------0---------0---------0-----2---2-0h2---2----|
D ---4---4---4---4---2-----2---2-----2-0-------------0----|
A –2-------2-------0---------0----------------------------|
D --------------------------------------------------0-----|
	Well I'm wasted..
   Em                   G  D/F#  Em  D
e ----------------------------------------|
B -----0---------0------3------------3----|
G -------0---------0----4------------2----|
D ---2-----2---2--------5------------0----|
A --------------------------(4)---2-------|
D –2---------2----------5----4----2-------|

	Intro

   D/C	      D/B	      D/Bb	 D/A	  F
e ----3p2-----------5----------------------------------------------|
B --------3-------3---3---3------3-3--------3------------0h1p0-1p0-|
G ---------0----0-------0------0----------2---2----------2---------|
D ----------------------------------------------------(3)----------|
A –-3---------2--------------1-------s3-0--------------------------|
D ----------------------------------------------0-2-3--------------|
        G             D
e ----------------------------------------|
B –1s3--3---3------------3-----------3----|
G –2s4—(4)-(4)---------2---2---0h2---2----|
D –3s5—(5)-(5)---------------3-------0----|
A ----------------------------------------|
D -------------3p0-0---------------0------|

	Verse
      Chorus

	Well I'm near the end..
   Em9/B           A7                  D
e -------------------------------------------------------|
B ---------------------2---------2---------3---------3---|
G -----0-------0---------0---------0-----2---2-0h2---2---|
D ---4---4---4---4---2-----2---2-----2-0-------------0---|
A –2-------2-------0---------0---------------------------|
D -------------------------------------------------0-----|

Well i'm so wasted..
G    F    F     F
D/C  D/B  D/Bb  D/A  F  G  D
D/C  D/B  D/Bb  D/A  F  G  D

   Home..
   D/C	      D/B    D/Bb    D/A	F                       G   F  D
e -------------------------------------------------------------------0-|
B -----3---------3-------3-------3----------------0h1p0-1-1s3-3---1—-3-|
G ---0---0-----0---0---0---0---2---3----------(2)-2-------2s4-4---2—-2-|
D ------------------------------------------(3)-----------3s5-5---3—-0-|
A -3---------2-------1-------0--------------------------------x—--x--0-|
D ------------------------------------0-2-3-------------------5---3—-0-|
Добавлено: 22.03.2012
Другие материалы по этой песне:

Страница создана 22.03.2012
http://primanota.ru/big-bang/cant-find-my-way-home-chords.htm
Привет, Гость.
Предлагаем пройти революционный курс по гитаре.
Подарок от PrimaNota.Ru, забирай!