PrimaNota.ru - самый крупный в мире бесплатный архив песенных текстов, аккордов, табулатур и нот


Big Audio Dynamite - Rush - таба, видео

Регистрация Запомнить меня
Войти через:  Facebook Google Twitter Vk Yandex Mail.ru

Big Audio Dynamite - Rush - таба, видео

Печатать
Просмотров: 120
Уроки эстрадного вокала в Санкт-Петербурге
Авторы: Mick Jones

-----------------------------------------------------------------------------
                             RUSH - Big Audio Dynamite
-----------------------------------------------------------------------------
Tabbed by:Swave75
E-mail:

Tuning:Standard

e|--------------------------------------|
B|-5-7-----5-7--------------------------|
G|-6-7-----6-7--------------------------|    Main riff
D|-7-7-----7-7--------------------------|
A|--------------------------------------|
E|-----x-x-----x-x----------------------|

e|--------------------------------------|
B|--------------------------------------|
G|-7b-----7b-7b-7b-7b-------------------|    Mick's little solo
D|--------------------------------------|
A|---------------------0----------------|
E|--------------------------------------|
Добавлено: 14.10.2013
Вам также может быть интересно:
Другие материалы по этой песне:
  • Аккорды и текст

Страница создана 14.10.2013
http://primanota.ru/big-audio-dynamite/rush-chords.htm
Привет, Гость.
Предлагаем пройти революционный курс по гитаре.
Подарок от PrimaNota.Ru, забирай!