PrimaNota.ru - самый крупный в мире бесплатный архив песенных текстов, аккордов, табулатур и нот


Big Audio Dynamite - Bottom Line - таба, видео

Регистрация Запомнить меня
Войти через:  Facebook Google Twitter Vk Yandex Mail.ru

Big Audio Dynamite - Bottom Line - таба, видео

Печатать
Просмотров: 81
Авторы: Mick Jones

		   Author/Artist: Big Audio Dynamite
Title: Bottom Line
Album: This Is Big Audio Dynamite
Transcribed by: Mitch Wylie
Email: carjammerman@aol.com

I couldnt find a tab for this song anywhere, so I
sat down and figured it out. I am not 100% sure 
about it.

---2-----------2------------2-----------2-------------------------------------
---3-----------3------------3-----------3-------------------------------------
---2-----------2------------2-----------2-------------------------------------
---0-------2---4------------0------2----4---------0-0-0-----------------------
----------------------0--------------------------2-2-2------------------------
------------------------------------------------------------------------------
   Intro/ Chorus                                                              

------------------------------------------------------------------------------
------------------------------------------------------------------------------
------------------------------------------------------------------------------
----0-0-0-0-4-0--0-0-0-0-0--0-0-0-0-4-0--0-0-0--------------------------------
---2-2-2-2------2-2-2-2-0--2-2-2-2------2-2-2---------------------------------
------------------------------------------------------------------------------
   Pre verse                                                                  

--2---------------------------------------------------------------------------
--3---------------------------------------------------------------------------
--2---------------------------------------------------------------------------
--0---------------------------0-0-0-------------------------------------------
-----------------------------2-2-2--------------------------------------------
------------------------------------------------------------------------------
  Verse                                                                       

     
Добавлено: 11.11.2013
Другие материалы по этой песне:
  • Аккорды и текст

Страница создана 11.11.2013
http://primanota.ru/big-audio-dynamite/bottom-line-chords.htm
Привет, Гость.
Предлагаем пройти революционный курс по гитаре.
Подарок от PrimaNota.Ru, забирай!