PrimaNota.ru - самый крупный в мире бесплатный архив песенных текстов, аккордов, табулатур и нот


Big & Rich - Rollin - таба, видео

Регистрация Запомнить меня
Войти через:  Facebook Google Twitter Vk Yandex Mail.ru

Big & Rich - Rollin - таба, видео

Печатать
Просмотров: 84
E------------------------------------------|----------------------------|
B------------------------------------------|----------------------------|
G------------------------------------------|----------------------------|
D------------------5--3--0--------------0--|-----------------5--3--0----|
A---------5--3--0-----------5--3--0--3-----|--------5--3--0-------------|
E---0--0-----------------------------------|--0--0----------------------|

E-------------------||-----------------|------------------------||------|
B-------------------||-----------------|------------------------||------|
G---------0--3--5--*||-----------------|-----------------------*||------|
D------------------*||--2--2--------5--|--------------------2--*||------|
A---5--3------------||--2--2--4--2--3--|--5--5-----4--2--4--2---||------|
E-------------------||--0--0--2--2-----|--3--3-----2--2--2------||------|


                                                  4x
E-------------------------------------------------||--------------------|
B-------------------------------------------------||--------------------|
G------------------------------------------------*||--------------------|
D---------------------5-----------------------2--*||--------------------|
A---------4-----------3-----------5--4--2--4--2---||--------5--3--0-----|
E---0--0--2-----0--0--------0--0--3--2--2--2------||--0--0--------------|

E---------------------------|-------------------------------------------|
B---------------------------|-------------------------------------------|
G---------------------------|-------------------------------------------|
D---5--3--0--------------0--|-----------------5--3--0--------------0----|
A------------5--3--0--3-----|--------5--3--0-----------5--3--0--3-------|
E---------------------------|--3--3-------------------------------------|

E---|--------------------------------------------|----------------------|
B---|--------------------------------------------|----------------------|
G---|--------------------------------------------|----------------------|
D---|--------------------5--3--0--------------0--|--5^--(5)--3--5-------|
A---|-----------5--3--0-----------5--3--0--3-----|----------------------|
E---|--5^--(5)-----------------------------------|----------------------|

E----------------------------------------||-----------------------------|
B----------------------------------------||-----------------------------|
G----------------------------------------||-----------------------------|
D---5^--(5)--3--5-----5^--5^--(5)--3~~~--||-----------------------------|
A----------------------------------------||-----------------------------|
E----------------------------------------||-----------------------------|


========================================================================
==                       TABLATURE EXPLANATION                        ==
========================================================================

----------                ----------                ----t---|
----5h8--- Hammeron       ----(8)--- Ghost          ----6---| Tap
----------                ---------- Note           --------|
----5p8--- Pulloff        ----------                --------|

----------                ----------                -----p--|
----5/8--- Slide Up       -----x---- Dead           -----7--| Pop
----------                ---------- Note           --s-----|
----5\8--- Slide Down     ----------                --5-----| Slap

----------                ||------|| Repeat         --------|
----5~~~-- Vibrato        ||*----*||                ---5^---| Bend
----------                ||*----*||                --------|
----------                ||------||                --------|

----------                ----------                --------|
-4:------- Time           ----------                --------|
-4:------- Signature      ----------                --------|
----------                ----------                --------|

Rhythm:
  w = whole note            W = dotted whole
  h = half note             H = dotted half
  q = quarter note          Q = dotted quarter
  e = eighth note           E = dotted eighth
  s = sixteenth note        S = dotted sixteenth
  t = 32nd note             T = dotted 32nd
  x = 64th note             X = dotted 64th
  ^ = triplet

========================================================================
==               Created with BUCKET O' TAB for Windows               ==
==                  For more info email gse@his.com                   ==
========================================================================
Добавлено: 21.06.2013
Другие материалы по этой песне:
  • Аккорды и текст

Страница создана 21.06.2013
http://primanota.ru/big-and-rich/rollin-chords.htm
Привет, Гость.
Предлагаем пройти революционный курс по гитаре.
Подарок от PrimaNota.Ru, забирай!