PrimaNota.ru - самый крупный в мире бесплатный архив песенных текстов, аккордов, табулатур и нот


Big & Rich - Fake Id - аккорды и текст, видео

Регистрация Запомнить меня
Войти через:  Facebook Google Twitter Vk Yandex Mail.ru

Big & Rich - Fake Id - аккорды и текст, видео

Печатать
Просмотров: 225
Fake Id
Big & Rich
Tabbed by: Erik Lawrence
Email: eriklawrence@sbcglobal.net
Tuning: Standard


Intro and First Verse:

e|---------------1-----------------------------------------------------------|
B|---3---1---3-------3---1---3-------3---1---3-------------------------------|
G|-----------------------------------------------0-------0-------------------|
D|0-------------------------------0------------------3-------0---------------|
A|---------------------------------------------------------------------------|
E|---------------------------------------------------------------------------|

e|---------------1--------------------------8-10-----------------------------|
B|---3---1---3-------3---1---3-------8---10-------------8---6---3------------|
G|---------------------------------------------------------------------------|
D|0--------------------------------------------------------------------------|
A|---------------------------------------------------------------------------|
E|---------------------------------------------------------------------------|

Hey, I've been driving all over town 

On my cellphone wearin' it out

And I've finally tracked you down

D         C         G          D
Hey, everybody says you're the man
          C          G       D
The final piece to my master plan
          C             G            D
You got my world in the palm of your hand


N.C.
Well I know that you got it

Come on and just sell it

Got the cash up in my pocket
                          G-G#-A-A#-B-C-C#-D
You know I gotta get it


Chorus
D                     C        G     D          
Hey mister won't you sell me a fake ID
                      C            G         D
There's a band in the bar that I'm dying to see
                   C        G       D
I got my money and you got what I need
                     C C N.C.  G G N.C.  D
Hey mister won't you sell me a fake ID


D                C           G         D
Hey, don't even think about tellin' me no
          C              G           D
It's only twenty minutes till the show
    C              G           D
Hey mister turn it over let's go


D     C           G          D
No, I ain't gonna need a receipt
          C            G           D
Just make sure that it looks like me
        C             G           D
So the bouncer don't call the police


N.C.
And don't tell my daddy

Stole the keys to his caddy

Don't dilly dally
                                         G-G#-A-A#-B-C-C#-D
I gotta get the hell out of this alley


D                    C          G    D
Hey mister won't you sell me a fake ID
                      C            G         D
There's a band in the bar that I'm dying to see
                   C         G      D
I got my money and you got what I need
                     C C N.C.  G G N.C. D
Hey mister won't you sell me a fake ID


Bb
Here's my money, now get out of my way
G                                         G-G#-A-A#-B-C-C#-D
Gonna push my luck right up to the stage

Solo: D C G x4

e|10---10----10---10---10---8--------8--10----8------------------------------|
B|------------------------------10-------------------------------------------|
G|---------------------------------------------------------------------------|
D|---------------------------------------------------------------------------|
A|---------------------------------------------------------------------------|
E|---------------------------------------------------------------------------|

e|10---8\7---8\7---5---------------------------------------------------------|
B|-------------------------8---6-------6h8---6---6---------------------------|
G|---------------------7-----------7-----------------------------------------|
D|---------------------------------------------------------------------------|
A|---------------------------------------------------------------------------|
E|---------------------------------------------------------------------------|

e|8----5--8----5--8--5--8--10--8---------------------------------------------|
B|----------------------------------10---8---6-------6/8\6-------------------|
G|-----------------------------------------------7---------------------------|
D|---------------------------------------------------------------------------|
A|---------------------------------------------------------------------------|
E|---------------------------------------------------------------------------|
                                   C  C  N.C.                  G G N.C.
e|--------10---------10------------------------------------------------------|
B|10--10-----10--10------10--6-----------------------------------------------|
G|---------------------------------------------------------------------------|
D|---------------------------------------------------------------------------|
A|---------------------------------------------------------------------------|
E|---------------------------------------------------------------------------|


N.C.
Hey mister won't you sell me a fake ID
                     
There's a band in the bar that I'm dying to see
                  
I got my money and you got what I need
            C C N.C. G G N.C.
Hey mister, hey mister


D                    C         G     D
Hey mister won't you sell me a fake ID
                      C            G         D
There's a band in the bar that I'm dying to see
                   C        G      D
I got my money and you got what I need
                     C         G     D
Hey mister won't you sell me a fake ID


(D)                  C         G     D
Hey mister won't you sell me a fake ID
                      C            G         D
There's a band in the bar that I'm dying to see
                   C        G       D
I got my money and you got what I need
                     C          G     D
Hey mister won't you sell me a fake ID
           C C N.C. G G N.C.
Hey mister, hey mister


Just listen to the song for rhythm and background guitar licks.

This is as played in the movie Footloose. Feel free to Email any corrections you think you have.
Добавлено: 06.06.2013
Другие материалы по этой песне:
  • Аккорды и текст

Страница создана 06.06.2013
http://primanota.ru/big-and-rich/fake-id-chords.htm
Привет, Гость.
Предлагаем пройти революционный курс по гитаре.
Подарок от PrimaNota.Ru, забирай!