PrimaNota.ru - самый крупный в мире бесплатный архив песенных текстов, аккордов, табулатур и нот


Biffy Clyro - Wooden Souvenir - таба, видео

Регистрация Запомнить меня
Войти через:  Facebook Google Twitter Vk Yandex Mail.ru

Biffy Clyro - Wooden Souvenir - таба, видео

Печатать
Просмотров: 133
Уроки эстрадного вокала в Санкт-Петербурге
Авторы музыки: Biffy Clyro
Авторы текста: Simon Neil
------------------------------------------------------------------------------
                        Wooden Souvenir- Biffy Clyro

------------------------------------------------------------------------------
Tabbed by: @St4rsAndShites (Twitter)
On: 26/07/14

B-side for Opposite, also now on Similarities, enjoy!

Dead easy to play, saw a horrendous guitar cover on youtube of this (played with tuning all the strings a
semitone up???)It's very obviously in drop C, and this is what i've worked out.
Also, check out my other tabs for Picture A Knife Fight, Break A Butterfly On A Wheel,
City Of Dreadful Night, Milky and Sorry And Thanks, Children's Limbsand A Tragic World Record, all fab songs
Mon the biff!


Tuning: CGCFAd (drop C)

Order:

Intro           (I)
Verse 1         (I) + (II)
Pre-chorus 1    (III)
Verse 2         (I) + (II)
Pre-chorus      (III)
Chorus          (IV)
middle 8        (V) + (II)
Verse 3         (I) + (II)
Pre-chorus      (III)
Chorus          (IV) but with palm mutes
Outro           (II)


(I)
|---------------------------------------------------------------------------|
|---------------------------------------------------------------------------|
|-----5+--5+-5+------5+--5+-5+------5+--5+-5+------5+--5+-5+----------------|
|---5+--5+-----5+--5+--5+-----5+--5+--5+-----5+--5+--5+-----5+--------------|
|---------------------------------------------------------------------------|
|---------------------------------------------------------------------------|

(II)
|---------------------------------------------------------------------------|
|--8-x-x-x-x-8-8-x-x-x-x-8-8-x-x-x-x-8-8-x-x-x-x-8/9-8----------------------|
|--7-x-x-x-x-7-7-x-x-x-x-7-7-x-x-x-x-7-7-x-x-x-x-7/8-7----------------------|
|--5-x-x-x-x-5-5-x-x-x-x-5-5-x-x-x-x-5-5-x-x-x-x-5/6-5----------------------|
|--5-x-x-x-x-5-5-x-x-x-x-5-5-x-x-x-x-5-5-x-x-x-x-5/6-5----------------------|
|--5-x-x-x-x-5-5-x-x-x-x-5-5-x-x-x-x-5-5-x-x-x-x-5/6-5----------------------|

(III)
|---------------------------------------------------------------------------|
|--4-x-x-x-x-4-4-x-x-x-x-4-4-x-x-x-x-4-4-x-x-x-x-4--------------------------|
|--3-x-x-x-x-3-3-x-x-x-x-3-3-x-x-x-x-3-3-x-x-x-x-3--------------------------|
|--1-x-x-x-x-1-1-x-x-x-x-1-1-x-x-x-x-1-1-x-x-x-x-1--------------------------|
|--1-x-x-x-x-1-1-x-x-x-x-1-1-x-x-x-x-1-1-x-x-x-x-1--------------------------|
|--1-x-x-x-x-1-1-x-x-x-x-1-1-x-x-x-x-1-1-x-x-x-x-1--------------------------|

(IV)
|---------------------------------------------------------------------------|
|---------------------------------------------------------------------------|
|-------------------------------------------12----12---------12----12-------|
|----13----13---------13----13-----------10----10---------10----10----------|
|-11----11---------11----11-------------------------------------------------|
|---------------------------------------------------------------------------|

|---------------------------------------------------------------------------|
|---------------------------------------------------------------------------|
|---------------------------------------------------------------------------|
|----12----12---------12----12-----------13----13---------13----13----------|
|-10----10---------10----10-----------11----11---------11----11-------------|
|---------------------------------------------------------------------------|

|---------------------------------------------------------------------------|
|---------------------------------------------------------------------------|
|-------------------------------------------12----12---------12----12-------|
|----13----13---------13----13-----------10----10---------10----10----------|
|-11----11---------11----11-------------------------------------------------|
|---------------------------------------------------------------------------|

|---------------------------------------------------------------------------|
|---------------------------------------------------------------------------|
|----15----15---------15----15-------------17----17----------17----17-------|
|-13----13---------13----13-------------15----15----------15----15----------|
|---------------------------------------------------------------------------|
|---------------------------------------------------------------------------|

(V)
|---------------------------------------------------------------------------|
|---------------------------------------------------------------------------|
|-(not the right number of times but just really fast and bending 5th fret)-|
|---------------------------------------------------------------------------|
|-5-5-5-5-5-5-5-5-5-5b-6-6-6-6-6-6-6-6-6-6br-5-5-5-5-5-5-5-5b-6-6-6-6-6-6-6-|
|---------------------------------------------------------------------------|





************************************

| /   slide up
| \   slide down
| h   hammer-on
| p   pull-off
| ~   vibrato
| +   harmonic
| x   Mute note
| b   Bend
| pb  Pre-bend
| br  Bend release
| pbr Pre-bend release
| brb Bend release bend

************************************
Добавлено: 14.09.2014
Другие материалы по этой песне:
  • Аккорды и текст

Страница создана 14.09.2014
http://primanota.ru/biffy-clyro/wooden-souvenir-chords.htm
Привет, Гость.
Предлагаем пройти революционный курс по гитаре.
Подарок от PrimaNota.Ru, забирай!