PrimaNota.ru - самый крупный в мире бесплатный архив песенных текстов, аккордов, табулатур и нот


Biffy Clyro - Unsubtle - текст песни, бас-таба, видео

Регистрация Запомнить меня
Войти через:  Facebook Google Twitter Vk Yandex Mail.ru

Biffy Clyro - Unsubtle - текст песни, бас-таба, видео

Печатать
Просмотров: 123
Уроки эстрадного вокала в Санкт-Петербурге
------------------------------------------------------------------------------
                              Unsubtle - Biffy Clyro
------------------------------------------------------------------------------

Tabbed by: ChrisT

Blackened Sky B-side

Tuning: Drop D

Intro
G|--------------------------------------------------------|
D|o------------------------------------------------------o|
A|o---5--5--5-5-5-------------------------8--8--8-8-8----o|
D|----------------5--5--5-5-5-8--8--8-8-8-----------------|

Verse                                            Repeat x4
G|--------------------------------------------------------|
D|o------------------------------------------------------o|
A|o---6--6--6-6-6-------------------------8--8--8-8-8----o|
D|----------------5--5--5-5-5-8--8--8-8-8-----------------|

Pause (Guitar)

             Repeat x8
G|--------------------|
D|o------------------o|
A|o------------------o|
D|----5--5-5--5-5-----|

Chorus
G|----------------------------------------------------------------------------|
D|----------------------------------------------------------------------------|
A|--6--6--6-6-6-6--6--6-6-6---------------------------------------------------|
D|--------------------------5--5--5-5-5-5--5--5-5-5-1--1--1-1-1-1--1--1-1-1---|

G|----------------------------------------------------------------------------|
D|----------------------------------------------------------------------------|
A|--------------------------6--6--6-6-6-6--6--6-6-6---------------------------|
D|--5--5--5-5-5-3--3--3-3-3-------------------------5--5--5-5-5-5--5--5-5-5---|

G|----------------------------|
D|----------------------------|
A|----------------------------|
D|--3--3--3-3-3-3--3--3-3-3---|

G|--------------------------------------------------------|
D|o------------------------------------------------------o|
A|o---5--5--5-5-5-------------------------8--8--8-8-8----o|
D|----------------5--5--5-5-5-8--8--8-8-8-----------------|

                                                 Repeat x4
G|--------------------------------------------------------|
D|o------------------------------------------------------o|
A|o---6--6--6-6-6-------------------------8--8--8-8-8----o|
D|----------------5--5--5-5-5-8--8--8-8-8-----------------|

G|-----------------------------------------------------------|
D|---------5-8-5-------7-10-7--------------------------------|
A|---6--6--------8--8----------------------------------------|
D|----------------------------8--8--8-8-8-5--5--3-5-3-5-3----|
 
G|-------------------------------------------|
D|---------5-8-5-------7-10-7----------------|
A|---6--6--------8--8------------------------|
D|----------------------------8--8--8-8-8----|

            Repeat x8
G|--------------------|
D|o------------------o|
A|o------------------o|
D|----5--5-5--5-5-----|

Pause (Guitar/Drums)

G|-----------------------------------------------|
D|o---------------------------------------------o|
A|o---------------------------------------------o|
D|----5-5--5-5--5-5--5-5--5-5--5-5--5-5--5-5-----|

G|--------------------------------------------------------------|
D|o------------------------------------------------------------o|
A|o------------------------------------------------------------o|
D|----1-1-1--1-1-1--1-1-1--1-1-1--1-1-1--1-1-1--1-1-1--1-1-1----|

     Repeat until end
G|-------------------|
D|o-----------------o|
A|o-----------------o|
D|----5--5-5--5-5----|




Добавлено: 03.12.2014
Другие материалы по этой песне:
  • Аккорды и текст

Страница создана 14.06.2012
http://primanota.ru/biffy-clyro/unsubtle-chords.htm
Привет, Гость.
Предлагаем пройти революционный курс по гитаре.
Подарок от PrimaNota.Ru, забирай!