PrimaNota.ru - самый крупный в мире бесплатный архив песенных текстов, аккордов, табулатур и нот


Biffy Clyro - Time Jazz - таба, видео

Регистрация Запомнить меня
Войти через:  Facebook Google Twitter Vk Yandex Mail.ru

Biffy Clyro - Time Jazz - таба, видео

Печатать
Просмотров: 103
Intro:
E|--------5-5-5-5-5---5---------5-5-5-5-5---5------|
B|--------5-5-5-5-5---5---------5-5-5-5-5---5------|
G|--------7-7-7-7-7---7---------7-7-7-7-7---7------|
D|------7---------------------7--------------------|
A|---5---------------------5-----------------------|
E|-------------------------------------------------|


E|----------0--0--0--0--0---0-----------0--0--0--0--0-----0-----|
B|----------0--0--0--0--0---0-----------0--0--0--0--0-----0-----|
G|-------9--9--9--9--9--9---9--------9--9--9--9--9--9-----9-----|
D|---11--11-11-11-11-11-11--11---11--11-11-11-11-11-11----11----|
A|-------12--------------------------12-------------------------|
E|--------------------------------------------------------------|


Verse:
E|--------------------5---------7-7-7-7-7---5------|
B|--------9-9-9-9-9---5---------5-5-5-5-5---5------|
G|--------7-7-7-7-7---7---------7-7-7-7-7---7------|
D|------7-7-7-7-7-7---7-------7-7-7-7-7-7---7------|
A|---5---------------------5-----------------------|
E|-------------------------------------------------|

E|----------0--0--0--0--0---0-----------0--0--0--0--0-----0-----|
B|----------0--0--0--0--0---0-----------0--0--0--0--0-----0-----|
G|-------9--9--9--9--9--9---9--------9--9--9--9--9--9-----9-----|
D|---11--11-11-11-11-11-11--11---11--11-11-11-11-11-11----11----|
A|-------12--------------------------12-------------------------|
E|--------------------------------------------------------------|

E|--------------------5---------7-7-7-7-7---5------|
B|--------9-9-9-9-9---5---------5-5-5-5-5---5------|
G|--------7-7-7-7-7---7---------7-7-7-7-7---7------|
D|------7-7-7-7-7-7---7-------7-7-7-7-7-7---7------|
A|---5---------------------5-----------------------|
E|-------------------------------------------------|

E|----------7--7--7--7--7----7------------7--7--7--7--7----7-----|
B|-------8--8--8--8--8--8----8---------8--8--8--8--8--8----8-----|
G|-------9--9--9--9--9--9----9---------9--9--9--9--9--9----9-----|
D|----10----10-10-10-10-10---10-----10----10-10-10-10-10---10----|
A|---------------------------------------------------------------|
E|---------------------------------------------------------------|

Chorus:
E|----------8--8--8--8--8----8---------8--8--8--8--8--8---8-----|
B|-------8--8--8--8--8--8----8-----8---8--8--8--8--8--8---8-----|
G|---9---9--9--9--9--9--9----9-----9---9--9--9--9--9--9---9-----|
D|---10--10-10-10-10-10-10---10----10--10-10-10-10-10-10--10----|
A|---8-----------------------10---------------------------------|
E|---------------------------8----------------------------------|

E|----------8--8--8--8--8----8------------8--8--8--8--8---8-----|
B|-------8--8--8--8--8--8----8---------8--8--8--8--8--8---8-----|
G|---9---9--9--9--9--9--9----9-----9---9--9--9--9--9--9---9-----|x2
D|---10--10-10-10-10-10-10---10----10--10-10-10-10-10-10--10----|
A|---8-----------------------10----0----------------------------|
E|---------------------------8----------------------------------|

Play the verse, which moves into this:
E|-----------------------------------------------------------------|
B|----------14-14-14-14-14---14------------14-14-14-14-14---14-----|
G|------14--14-14-14-14-14---14--------14--14-14-14-14-14---14-----|
D|------14--14-14-14-14-14---14--------14--14-14-14-14-14---14-----|
A|--12--12--12-12-12-12-12---12----12--12--12-12-12-12-12---12-----|
E|-----------------------------------------------------------------|

E|-----------------------------------------------------------------|
B|----------12-12-12-12-12---12------------12-12-12-12-12---12-----|
G|------12--12-12-12-12-12---12--------12--12-12-12-12-12---12-----|
D|------12--12-12-12-12-12---12--------12--12-12-12-12-12---12-----|
A|--10--10--10-10-10-10-10---10----10--10--10-10-10-10-10---10-----|
E|-----------------------------------------------------------------|

E|-----------------------------------------------------------------|
B|----------14-14-14-14-14---14------------14-14-14-14-14---14-----|
G|------14--14-14-14-14-14---14--------14--14-14-14-14-14---14-----|
D|------14--14-14-14-14-14---14--------14--14-14-14-14-14---14-----|
A|--12--12--12-12-12-12-12---12----12--12--12-12-12-12-12---12-----|
E|-----------------------------------------------------------------|

E|----------7--7--7--7--7----7------------7--7--7--7--7----7-----|
B|-------8--8--8--8--8--8----8---------8--8--8--8--8--8----8-----|
G|-------9--9--9--9--9--9----9---------9--9--9--9--9--9----9-----|
D|----10----10-10-10-10-10---10-----10----10-10-10-10-10---10----|
A|---------------------------------------------------------------|
E|---------------------------------------------------------------|

Play double Chorus which then moves into the Outro:

E|-----------------------------------------------------------------------|
B|-----------13--12-----------13-12-----------13--12------------13-------|
G|-----12----12--12-----12----12-12-----12----12--12------12----12-12----|
D|--10----10---------10----10--------10----10----------10----10----10----|
A|-----------------------------------------------------------------------|
E|-----------------------------------------------------------------------|



I realise its not 100% but it fits pretty well.
I've put a cover of this on youtube if you're interested:
http://www.youtube.com/watch?v=yLnuDVO4_e8&feature=g-upl
Добавлено: 11.10.2013
Другие материалы по этой песне:
  • Аккорды и текст

Страница создана 11.10.2013
http://primanota.ru/biffy-clyro/time-jazz-chords.htm
Привет, Гость.
Предлагаем пройти революционный курс по гитаре.
Подарок от PrimaNota.Ru, забирай!