PrimaNota.ru - самый крупный в мире бесплатный архив песенных текстов, аккордов, табулатур и нот


Biffy Clyro - Time As An Imploding Unit - таба, видео

Регистрация Запомнить меня
Войти через:  Facebook Google Twitter Vk Yandex Mail.ru

Biffy Clyro - Time As An Imploding Unit - таба, видео

Печатать
Просмотров: 96
-------------------------------------------------------------------------------
                TIME AS AN IMPLODING UNIT - Biffy Clyro
-------------------------------------------------------------------------------
Tabbed by: merkinball15

Some of parts have odd timings and strum patterns, so listen to the song for those

Tuning: Drop D

intro
e|----+12~-------------------+12~---+12~-------------------------------------|
B|--------+12~-----------+12~------------+12~--------------------------------|
G|------------+12~---+12~--------------------+12~----------------------------|
D|---------------------------------------------------------------------------|
A|---------------------------------------------------------------------------|
D|---------------------------------------------------------------------------|


next part
e|---------------------------------------------------------------------------| x2
B|----0-0-0-0-0-0-0-0-0-0-0-000-00-00-0-0-00-00-00-0-0-000-------------------| 
G|----4-4-4-4-4-4-4-4-4-4-4-444-44-44-4-4-44-44-44-4-4-444-------------------| 
D|----2-2-2-2-0-0-0-0-x-x-x-xxx-xx-xx-x-x-xx-22-00-x-x-222-------------------| 
A|--------------------2-2-2-222-22-23-3-3-33-------2-2-----------------------|
D|---------------------------------------------------------------------------|
 
next part
e|---------------------------------------------------------------------------| x2
B|----/7--7-787-7-7-787-7-7-777-7-78-8-8-888-87-78---------------------------|
G|----/9--9-999-9-9-999-9-9-999-9-99-9-9-999-99-99--/9-99--------------------|
D|----/9--9-999-9-9-999-9-9-999-9-99-9-9-999-99-99---x-xx--------------------|
A|--------------------------------------------------/7-77--------------------|
D|---------------------------------------------------------------------------|

next part
e|---------------------------------------------------------------------------| x2
B|----------------------0--0--000-00-/7-77-7-7-77-xx-------------------------|
G|----2--2--2-224444444-4--4--444-44-/9-77-7-7-77-xx-77777/9\5-5-5-55--------|
D|----2--2--2-222222222-2--2--222-22-/9-99-9-9-99-xx-xxxxx-x-x-x-x-xx--------|
A|----0--0--0-000003333-3--3--333-33--------------xx-55555/7\3-3-3-33--------|
D|---------------------------------------------------------------------------|           

next part
e|---------------------------------------------------------------------------| x2
B|------0~----------0~-------------------------------------------------------|
G|-----------0~-----------0~-------0~-----------0~---------------------------|
D|-----------------------------------2~-----------2~-------------------------|
A|----0~---0~----0~---0~----------------3~-----------3~----------------------|
D|----------------------------0-3~-----------3~------------------------------|

next part
e|----------------------------------------2---02---2------2---02---2---------| 
B|----------------------0--0--000-00----0---0----0------0---0----0-----------|
G|----2--2--2-224444444-4--4--444-44-----------------------------------------|
D|----2--2--2-222222222-2--2--222-22--2~--------------0~---------------------|
A|----0--0--0-000003333-3--3--333-33-----------------------------------------|
D|---------------------------------------------------------------------------| 

e|------------0-----------------0---------------0----------------0-----------|
B|--------3-----3---3-------3-----3---3-----3-----3---3------3-----3---3-----|
G|------0---0-----0-------0---0-----0-----0---0-----0------0---0-----0-------|
D|---------------------------------------------------------------------------|
A|----3~--------------/5~---------------3~--------------/5~------------------|
D|---------------------------------------------------------------------------|

e|---------------------------------------------------------------------------| x2
B|---------------------------------------------------------------------------|
G|----77777/9~--5-----(77777/9/10~-9)----------------------------------------|
D|----xxxxx-x---x------xxxxx-x-x---x-----------------------------------------|
A|----55555/7~--3-----(55555/7/8~--7)-end this way on the 2nd time-----------|
D|---------------------------------------------------------------------------|

next part
e|---------------------------------------------------------------------------| x2
B|------0~----------0~-------------------------------------------------------|
G|-----------0~----------0~---------0~-----------0~--------------------------|
D|------------------------------------2~-----------2~------------------------|
A|----0~---0~----0~---0~----------------3~-----------3~----------------------|
D|-----------------------------0-3~-----------3~-----------------------------|

next part
e|---------------------------------------------------------------------------|
B|---------------------------------------------------------------------------|
G|------4~---------4~-----4/7\4~-4-4/5~-5/7~-7/9~-9/10-10-10-----------------|
D|-----------5~--------5~----------------------------------------------------|
A|----0~---0~----0~--0~------------------------------------------------------|
D|---------------------------------------------------------------------------|

next part
e|---------------------------------------------------------------------------| x2
B|---------------------------------------------------------------------------|
G|----/9-9-9-9-10-10-10-10-12-12-12-12-16-16-16-16-16\-----------------------|
D|---------------------------------------------------------------------------|
A|---------------------------------------------------------------------------|
D|---------------------------------------------------------------------------|

next part
e|---------------------------------------------------------------------------| x2
B|------------------0-0-0-00-0-0---------------------------------------------|
G|----4-4-4-44-00-0-x-x-x-xx-x-x-5-5-5-55-5-5--------------------------------|
D|----2-2-2-22-00-0-5-5-5-55-5-5-3-3-3-33-3-3-/9-9-9-99-5-5------------------|
A|------------------5-5-5-55-5-5--------------/9-9-9-99-5-5------------------|
D|------------------5-5-5-55-5-5--------------/9-9-9-99-5-5------------------|

next part
e|---------------------------------------------------------------------------| x2
B|----------------6----------------------------------------------------------|
G|----9-----7-----5----------------------------------------------------------|
D|----9-----5-----3-----/9-9-9-99-5-5--(/9-9-9-99-10-10)---------------------|
A|----7-x8--5-x8--3-x8--/9-9-9-99-5-5--(/9-9-9-99-10-10)-end this way on-----|
D|----7-----5-----3-----/9-9-9-99-5-5--(/9-9-9-99-10-10)-the 2nd time--------|

next part
e|---------------------------------------------------------------------------|
B|---------------------------------------------------------------------------|
G|---------------------------------------------------------------------------|
D|----10-10-10-10-9-9-9-9-5-5-5-5-5-5-5-5-10-10-10-10-9-9-9-10-12-12-12-12---|
A|----0--0--0--0--0-0-0-0-0-0-0-0-0-0-0-0-0--0--0--0--0-0-0-0--10-10-10-10---|
D|---------------------------------------------------------------------------|

e|---------------------------------------------------------------------------| x4
B|---------------------------------------------------------------------------|
G|---------------------------------------------------------------------------|
D|----12-12-9-9-15-15-15-15-14-14-14-14-12-12-12-12-9-9-9-9------------------|
A|----10-10-10--x--x--x--x--x--x--x--x--10-10-10-10-7-7-7-7------------------|
D|--------------0--0--0--0--0--0--0--0---------------------------------------|

next part
e|----------------------------------------hold that last chord and let-it----| x4
B|----------------------------------------feedback before starting the next--| 
G|----9-9-9-99-9-9-9-99-9-9-9-99--10---5/-part (Waiting for Green)-----------|    
D|----9-9-9-9109-9-9-9109-9-9-990-10-0-5/------------------------------------| 
A|----7-7-7-77-7-7-7-77-7-7-7-770-8--0-3/------------------------------------|  
D|----7-7-7-77-7-7-7-77-7-7-7-770-0--0-3/------------------------------------| 

next part
e|----------8-------8-------8-------8----------------------------------------| listen
B|------6-------6-------6-------6--------------------------------------------| to the 
G|----7---7---7---7---7---7---7---7------------------------------------------| song for
D|---------------------------------------------------------------------------| how many
A|---------------------------------------------------------------------------| times to
D|---------------------------------------------------------------------------| play this

next part
e|--------5-------4-------0~------0~-----5-------4-------0~-------0~---------|
B|------7---7---7---7---7---7---7------7---7---7---7---7----7---7----7-------|
G|----7-------6-------5-------5------7-------6-------5--------5--------------|
D|---------------------------------------------------------------------------|
A|---------------------------------------------------------------------------|
D|---------------------------------------------------------------------------|

e|--------0~------0----------------------------------------------------------|
B|------7---7---7-7----------------------------------------------------------|
G|----5-------5--------------------------------------------------------------|
D|---------------------------------------------------------------------------|
A|---------------------------------------------------------------------------|
D|---------------------------------------------------------------------------|

next part
e|---------------------------------------------------------------------------| x4
B|----3-3-3333----------1010-101010-101010-101010-10-------------------------| do the
G|----2-2-2222-(10b)----1010-101010-101010-101010-10-------------------------| bend on
D|----0-0-0000-(8b)-----8-8--8-8-8--8-8-8--8-8-8--8--------------------------| 4th time
A|----0-0-0000----------8-8--8-8-8--8-8-8--8-8-8--8--------------------------|
D|----0-0-0000----------8-8--8-8-8--8-8-8--8-8-8--8--------------------------|

next part
e|---------------------------------------------------------------------------|
B|----10---------------------------------------------------------------------|
G|----10-x15-----------------------------------------------------------------|
D|----8----------------------------------------------------------------------|
A|---------------------------------------------------------------------------|
D|---------------------------------------------------------------------------|

next part
e|----------8-------8-------8-------8----------------------------------------| listen
B|------6-------6-------6-------6--------------------------------------------| to the 
G|----7---7---7---7---7---7---7---7------------------------------------------| song for
D|---------------------------------------------------------------------------| how many
A|---------------------------------------------------------------------------| times to
D|---------------------------------------------------------------------------| play this

next part
e|---------------------------------------------------------------------------| x4
B|---------------------------------------------------------------------------|
G|----5-----3-----7-----3----------------------------------------------------|
D|----5-----3-----7-----3----------------------------------------------------|
A|----3-x8--1-x8--5-x8--1-x8-------------------------------------------------|
D|----3-----------0----------------------------------------------------------|

next part
e|--------5-------4-------0~------0~-----5-------4-----0~----0~--------------|
B|------7---7---7---7---7---7---7------7---7---7---7-----7-----7-------------|
G|----7-------6-------5-------5------7-------6-------5-----5-----5-----------|
D|---------------------------------------------------------------------------|
A|---------------------------------------------------------------------------|
D|---------------------------------------------------------------------------|

e|----0~----0~------0--------------------------------------------------------|
B|------7-----7---7-7--------------------------------------------------------|
G|--------5-----5---5--------------------------------------------------------|
D|---------------------------------------------------------------------------|
A|---------------------------------------------------------------------------|
D|---------------------------------------------------------------------------|

next part
e|-------------(+3)----------------------------------------------------------| x4
B|----3-3-3333-(+3)----1010-101010-101010-101010-10--------------------------| hit the
G|----2-2-2222-(+3)----1010-101010-101010-101010-10--------------------------| harmonics
D|----0-0-0000-(+3)----8-8--8-8-8--8-8-8--8-8-8--8---------------------------| on the 
A|----0-0-0000-(+3)----8-8--8-8-8--8-8-8--8-8-8--8---------------------------| 4th time
D|----0-0-0000-(+3)----8-8--8-8-8--8-8-8--8-8-8--8---------------------------|

next part
e|---------------------------------------------------------------------------| x4
B|----10-----10--------------------------------------------------------------|
G|----10-----10--------------------------------------------------------------|
D|----0-x16--8-x16-----------------------------------------------------------|
A|----0------8---------------------------------------------------------------|
D|----0------8---------------------------------------------------------------|

next part
e|---------------------------------------------------------------------------| x7
B|---------------------------------------------------------------------------|
G|-----------------9--10109-9-1010-------------------------------------------|
D|----0--0--/5-3-2-10-101010101010-------------------------------------------|
A|----0--0--/5-3-2-8--8-8-8-8-8-8--------------------------------------------|
D|----0--0--/5-3-2-8--8-8-8-8-8-8--------------------------------------------|

ending
e|---------------------------------------------------------------------------|
B|-------------------------3~------------------------------------------------|
G|-----------------10~-----4~------------------------------------------------|
D|----0--0--/5-3-2-10~---0-x-------------------------------------------------|
A|----0--0--/5-3-2-8~----0-5~------------------------------------------------|
D|----0--0--/5-3-2-8~----0-5~------------------------------------------------|

Enjoy!



************************************

| /   slide up
| \   slide down
| h   hammer-on
| p   pull-off
| ~   vibrato
| +   harmonic
| x   Mute note
| b   Bend
| pb  Pre-bend
| br  Bend release
| pbr Pre-bend release
| brb Bend release bend

************************************
Добавлено: 25.09.2013
Другие материалы по этой песне:

Страница создана 25.09.2013
http://primanota.ru/biffy-clyro/time-as-an-imploding-unit-chords.htm
Привет, Гость.
Предлагаем пройти революционный курс по гитаре.
Подарок от PrimaNota.Ru, забирай!