PrimaNota.ru - самый крупный в мире бесплатный архив песенных текстов, аккордов, табулатур и нот


Biffy Clyro - Some Kind Of Wizard - текст песни, таба, бас-таба, видео

Регистрация Запомнить меня
Войти через:  Facebook Google Twitter Vk Yandex Mail.ru

Biffy Clyro - Some Kind Of Wizard - текст песни, таба, бас-таба, видео

Печатать
Просмотров: 217
Hello you beggars....here to clear up the mess posted by idiots once again...so this is
pretty darn accurate...im bored now goodbye. Anthony Yeung's head is huuuuuuuuuge.


Intro

e]----------------------------------------|
b]----------------------------------------|
g]-----------5-----------------4----------|
d]-----5-----------4-----5-----------7----|
a]-0h3---0h3---0h5---0h3---0h3---0h5------|
d]----------------------------------------|

e]----------------------------------|
b]----------------------------------|
g]-----------5----------------------|
d]-----5-----------4-------0h2h4----|
a]-0h3---0h3---0h5---0h2h3----------|
d]----------------------------------|

e]------------------------------------------|
b]------------------------------------------|
g]------------------------------------------|
d]----2-2--0-0-2-0-0--2-0-0--2--4b----------|
a]----2-2--0-0-2-0-0--2-0-0--2--------------|
d]----2-2--0-0-2-0-0--2-0-0--2--------------|

Verse

e]--------------------------|
b]--------------------------|
g]--5-/-12---4-/-11---------|
d]--5-/-12---4-/-11---------|
a]--3-/-10---2-/-9----------|
d]--------------------------|

e]------------------------------------------|
b]------------------------------------------|
g]------------------------------------------|
d]--2-0-0-2--0-0-2-0-0-2-0------------------|
a]--2-0-0-2--0-0-2-0-0-2-0------------------|
d]--2-0-0-2--0-0-2-0-0-2-0------------------|


e]------ 0---------------|
b]-0h2h4---4-2-----------|
g]-----------------------|
d]-----------------------|
a]-----------------------|
d]-----------------------|

Pre Chorus

e]-----------------------------------------|
b]-----------------------------------------|
g]--11--9-11-11--9-11-11--9-11-11----------|
d]-----------------------------------------|
a]--9---7-9--9---7-9--9---7-9--9-----------|
d]--0---0-0--0---0-0--0---0-0--0-----------|

e]---------------|
b]---------------|
g]--6-6-6--4-4-4-|
d]--6-6-6--4-4-4-|
a]--4-4-4--2-2-2-|
d]---------------|

e]-----------------------------------------|
b]-----------------------------------------|
g]--11--9-11-11--9-11-11--9-11-11----------|
d]-----------------------------------------|
a]--9---7-9--9---7-9--9---7-9--9-----------|
d]--0---0-0--0---0-0--0---0-0--0-----------|

e]-----------------------|
b]-----------------------|
g]--------14----13-------|
d]-----11-----11---------|
a]--12-----11------------|
d]-----------------------|

e]-----------------------------------------|
b]-----------------------------------------|
g]--11--9-11-11--9-11-11--9-11-11----------|
d]-----------------------------------------|
a]--9---7-9--9---7-9--9---7-9--9-----------|
d]--0---0-0--0---0-0--0---0-0--0-----------|

e]---------------|
b]---------------|
g]--6-6-6--4-4-4-|
d]--6-6-6--4-4-4-|
a]--4-4-4--2-2-2-|
d]---------------|

e]---------------|
b]---------------|
g]--11--9-11-11--|
d]---------------|
a]--9---7-9--9---|
d]--0---0-0--0---|

Chorus

e]-----------------------------------0---|
b]-----------------------------------0---|
g]---------------------11--9-11-11---0---|
d]--11--------4--------------------------|
a]--11-(x16)--4-(x16)--9---7-9--9--------|
d]--11--------4--------0---0-0--0--------|

e]-----------------------------|
b]-----------------------------|
g]-----------------------------|
d]--7-------11-------4---------|
a]--7-(x16)-11-(x16)-4-(x16)---|
d]--7-------11-------4---------|

e]-----------------------------------------|
b]-----------------------------------------|
g]--11--9-11-11--9-11-11--9-11-11----------|
d]-----------------------------------------|
a]--9---7-9--9---7-9--9---7-9--9-----------|
d]--0---0-0--0---0-0--0---0-0--0-----------|

e]----------------------------------------|
b]----------------------------------------|
g]-----------5-----------------4----------|
d]-----5-----------4-----5-----------7----|
a]-0h3---0h3---0h5---0h3---0h3---0h5------|
d]----------------------------------------|

e]----------------------------------|
b]----------------------------------|
g]-----------5----------------------|
d]-----5-----------4-------0h2h4----|
a]-0h3---0h3---0h5---0h2h3----------|
d]----------------------------------|

e]------------------------------------------|
b]------------------------------------------|
g]------------------------------------------|
d]----2-2--0-0-2-0-0--2-0-0--2--4b----------|
a]----2-2--0-0-2-0-0--2-0-0--2--------------|
d]----2-2--0-0-2-0-0--2-0-0--2--------------|


e]----------------------------|
b]----------------------------|
g]----------------------------|
d]--2-2-2--2-2-2--2-2-2-------|Random string noise
a]--2-2-2--2-2-2--2-2-2-------|
d]--2-2-2--2-2-2--2-2-2-------|

e]--------------------------|
b]--------------------------|
g]--5-/-12---4-/-11---------|
d]--5-/-12---4-/-11---------|
a]--3-/-10---2-/-9----------|
d]--------------------------|

e]------------------------------------------|
b]------------------------------------------|
g]------------------------------------------|
d]--2-0-0-2--0-0-2-0-0-2-0------------------|
a]--2-0-0-2--0-0-2-0-0-2-0------------------|
d]--2-0-0-2--0-0-2-0-0-2-0------------------|

e]--------------------------|
b]--------------------------|
g]--5-/-12---4-/-11---------|
d]--5-/-12---4-/-11---------|
a]--3-/-10---2-/-9----------|
d]--------------------------|

Verse

e]------------------------------------------------------------------------------------|
b]-8--7-7-8--7-7-8--7-7-8--10--12-10-10-12--10-10-12--10-10-12--13--------------------|
g]-0--0-0-0--0-0-0--0-0-0--0----0-0--0--0---0--0--0---0--0--0---0---------------------|
d]-5--4-4-5--4-4-5--4-4-5--7----9-7--7--9---7--7--9---7--7--9---10--------------------|
a]-7--5-5-7--5-5-7--5-5-7--9---10-9--9--10--9--9--10--9--9--10--12--------------------|
d]------------------------------------------------------------------------------------|

e]------------------------------------|
b]--10--8-8--10-8-8--10-8-8--10-7--8--|
g]--0---0-0--0--0-0--0--0-0--0--0--0--| Repeat
d]--7---5-5--7--5-5--7--5-5--7--4--5--| "Quick unstich my eyes..before they stick.."
a]--9---7-7--9--7-7--9- 7-7--9--5--7--|
d]------------------------------------|

Bridge

e]------6-------6----------0---0-------|
b]--------0-------0--0h2/4---4---------|
g]-------------------------------------|
d]--2-2-----2-2-----------------(*2)---|
a]--2-2-----2-2------------------------|
d]--2-2-----2-2------------------------|

e]--------2-----2---------0---0---------|
b]------1------1---0h2/4---4------------|
g]--------------------------------------|
d]--------------------------------------|
a]--3-3-----3-3-------------------------|
d]--2-2-----2-2-------------------------|

Repeat Bridge

e]------------------|
b]------------------|
g]------------------|
d]--2-2--2-2--2-----|
a]--2-2--2-2--2-----|
d]--2-2--2-2--2-----|

Back to Pre chorus
Then Chorus

Solo

e]-----------------------------------------------------|
b]-----------------------------------------------------|
g]--8-8-8-8-8-8-8-8-8-8-8-8-8-8-8-8-8-8-8-8-8-8b-------|
d]------------------------------------------------ (*4-|
a]-----------------------------------------------------|
d]-----------------------------------------------------|

e]-----------------------------------------------------------|
b]------------------------------9----------------------------|
g]--8-9-11-8-9-11-8-9-11-8-9-11---11-9-8-9-11-8-9-11-8-9-11--|
d]-----------------------------------------------------------|
a]-----------------------------------------------------------|
d]-----------------------------------------------------------|

e]--------------------------------------------------------------------|
b]--9-----------------------------------------------------------------|
g]----11-9-8-9-11-8------8------8------8------8------8----------------|
d]------------------11-9---11-9---11-9---11-9---11-9---11-9-----------|
a]--------------------------------------------------------------------|
d]--------------------------------------------------------------------|

e]-------------------------------------|
b]----12-12-12b------------------------|
g]-------------------------------------|
d]--9-9--9--9b-------------------------|
a]-------------------------------------|
d]-------------------------------------|

Listen to song for timing

e]------------------------------------|
b]------------------------------------|
g]--1-------8---------4-------1-------|
d]--0-(*6)--9--(*16)--6-(*6)--0-(*6)--|
a]--0-------6---------3-------0-------|
d]--0-------6---------3-------0-------|

e]-------------2-----2-----------|
b]-------------3-----3-----------|
g]-------------2-----2-----------|
d]--6-7-12--0--0--0--0--6-7-12---|
a]--6-7-12--0-----0-----6-7-12---|
d]--6-7-12--0-----0-----6-7-12---|

e]-------------------------------------------|
b]------12------12-------------8/7-----8-----|
g]------12------12-------------7-------7-----|
d]--10--10--10--10--6-7-12--5--5-----5-5-----|
a]--10--10--10--10--6-7-12--5--5-----5-------|
d]--10------10------6-7-12--5--5-----5-------|

      1st time                      2nd time

e]--------------2-----2--   e]------------------------|
b]--------------3-----3--   b]------------------------|
g]--------------2-----2--   g]-----------------[1]-~--|
d]--6-7-12---0--0--0--0--   d]--6-7-12--0---0---0--~--|
a]--6-7-12---0-----0-----   a]--6-7-12--0---0---0--~--|
d]--6-7-12---0-----0-----   d]--6-7-12--0---0---0--~--|
Добавлено: 03.04.2012
Другие материалы по этой песне:

Страница создана 18.03.2012
http://primanota.ru/biffy-clyro/some-kind-of-wizard-chords.htm
Привет, Гость.
Предлагаем пройти революционный курс по гитаре.
Подарок от PrimaNota.Ru, забирай!