PrimaNota.ru - самый крупный в мире бесплатный архив песенных текстов, аккордов, табулатур и нот


Biffy Clyro - Once An Empire - таба, видео

Регистрация Запомнить меня
Войти через:  Facebook Google Twitter Vk Yandex Mail.ru

Biffy Clyro - Once An Empire - таба, видео

Печатать
Просмотров: 174
-------------------------------------------------------------------------------
                            Once An Empire - Biffy Clyro
-------------------------------------------------------------------------------
Tabbed by:
Email:

Tuning: Standard (EADGBe)

Awesome B-Side from The Captain, with some of the best lyrics I've ever heard.

Not 100% about the bass parts, if you think you've got it right post it in the comments 
and I'll stick it in.

Also, quantities of notes are more for the duration than the actual rhythm, you'll have
to figurethat out yourself.


Intro

e|---------------------------------------------------------------------------|
B|---------------------------------------------------------------------------|
G|---------------------------------------------------------------------------|
D|-----------------0---------------------0-----------------------------------|
A|-2-2-0-2---2-0-2---2-0-2-2-0-2---2-0-2---2-0-------------------------------|
E|---------------------------------------------------------------------------|


Verse/Bass Part

e|---------------------------------------------------------------------------|
B|---------------------------------------------------------------------------|
G|---------------------------------------------------------------------------|
D|---------------------------------------------------------------------------|
A|---------------------------------------------------------------------------|
E|-7-7-7-7-7-7-7-7-4-4-4-4-4-4-4-4-2-2-2-2-2-2-2-2-0-0-0-0-0-0-0-0-----------|

e|---------------------------------------------------------------------------|
B|---------------------------------------------------------------------------|
G|---------------------------------------------------------------------------|
D|---------------------------------------------------------------------------|
A|----------------------------------------------------------7-7-7-7----------|
E|-7-7-7-7-7-7-7-7-4-4-4-4-4-4-4-4-2-2-2-2-2-2-2-2-0-0-0-0-------------------|

Chorus

e|---------------------------------------------------------------------------|
B|---------------------------------------------------------------------------|
G|---------------------------------------------------------------------------|
D|-12-12-12-12-12-7-9--------12-12-12-12-12-14-2--------5-5-5-5-5-12-9-------|
A|-12-12-12-12-12-7-9-(x8)---12-12-12-12-12-14-2-(x8)---5-5-5-5-5-12-9-(x8)--|
E|-10-10-10-10-10-5-7--------10-10-10-10-10-12-0--------3-3-3-3-3-10-7-------|

e|---------------------------------------------------------------------------|
B|---------------------------------------------------------------------------|
G|---------------------------------------------------------------------------|
D|-2--------5--------9--------7--------2--------5--------12--------7---------|
A|-2-(x16)--5-(x16)--9-(x16)--7-(x16)--2-(x16)--5-(x16)--12-(x16)--7-(x16)---|
E|-0--------3--------7--------5--------0--------3--------10--------9---------|


Verse

e|---------------------------------------------------------------------------|
B|---------------------------------------------------------------------------|
G|---------------------------------------------------------------------------|
D|---------------------------------------------------------------------------|
A|-----------------5---------------------5-----------------------------------|
E|-7-7-5-7---7-5-7---7-5-7-7-5-7---7-5-7---7---------------------------------|

e|---------------------------------------------------------------------------|
B|---------------------------------------------------------------------------|
G|---------------------------------------------------------------------------|(Bass
D|---------------------------------------------------------------------------| Part)
A|---------------------------------------------------------------------------|
E|-7-7-7-7-7-7-7-7-4-4-4-4-4-4-4-4-2-2-2-2-2-2-2-2-0-0-0-0-0-0-0-0-----------|

e|---------------------------------------------------------------------------|
B|---------------------------------------------------------------------------|
G|---------------------------------------------------------------------------|
D|-------------------------------------------------------------------7-------|
A|-----------------5---------------------2---------------------0-----7-(x16)-|
E|-7-7-5-7---7-5-7---7-5-4-4-2-4---4-2-4---4-2-2-2-0-2---2-0-2---2-0-5-------|


Chorus

e|---------------------------------------------------------------------------|
B|---------------------------------------------------------------------------|
G|-7-7-7-7-7------------7-7-7-7-7-9--------------------7---------------------|
D|-7-7-7-7-7-7-9--------7-7-7-7-7-9-2--------5-5-5-5-5-7-9-------------------|
A|-5-5-5-5-5-7-9-(x8)---5-5-5-5-5-7-2-(x8)---5-5-5-5-5-5-9-(x8)--------------|
E|-----------5-7--------------------0--------3-3-3-3-3---7-------------------|

e|---------------------------------------------------------------------------|
B|---------------------------------------------------------------------------|
G|---------------------------------------------------------------------------|
D|-2--------5--------9--------7--------2--------5--------12--------7---------|
A|-2-(x16)--5-(x16)--9-(x16)--7-(x16)--2-(x16)--5-(x16)--12-(x16)--7-(x16)---|
E|-0--------3--------7--------5--------0--------3--------10--------9---------|


Bridge

e|---------------------------------------------------------------------------|
B|---------------------------------------------------------------------------|
G|-7-------9----------------7-------9----------------------------------------|
D|-7-(x8)--9-(x8)--9--------7-(x8)--9-(x8)--5--------------------------------|
A|-5-------7-------9-(x16)--5-------7-------5-(x16)--------------------------|
E|-----------------7------------------------3--------------------------------|

e|---------------------------------------------------------------------------|
B|---------------------------------------------------------------------------|
G|---------------------------------------------------------------------------|
D|-2--------5--------9--------7--------2--------5--------12--------7---------|
A|-2-(x16)--5-(x16)--9-(x16)--7-(x16)--2-(x16)--5-(x16)--12-(x16)--7-(x16)---|
E|-0--------3--------7--------5--------0--------3--------10--------9---------|

e|---------------------------------------------------------------------------|
B|---------------------------------------------------------------------------|
G|---------------------------------------------------------------------------|
D|---------------------------------------------------------------------------|
A|-----------------5---------------------------------------------------------|
E|-7-7-5-7---7-5-7---7-5-7-7-5-7---------------------------------------------|

************************************

| /   slide up
| \   slide down
| h   hammer-on
| p   pull-off
| ~   vibrato
| +   harmonic
| x   Mute note
| b   Bend
| pb  Pre-bend
| br  Bend release
| pbr Pre-bend release
| brb Bend release bend

************************************
Добавлено: 16.04.2012
Другие материалы по этой песне:
  • Аккорды и текст

Страница создана 16.04.2012
http://primanota.ru/biffy-clyro/once-an-empire-chords.htm
Привет, Гость.
Предлагаем пройти революционный курс по гитаре.
Подарок от PrimaNota.Ru, забирай!