PrimaNota.ru - самый крупный в мире бесплатный архив песенных текстов, аккордов, табулатур и нот


Biffy Clyro - Mountains Live - таба, видео

Регистрация Запомнить меня
Войти через:  Facebook Google Twitter Vk Yandex Mail.ru

Biffy Clyro - Mountains Live - таба, видео

Печатать
Просмотров: 250
Уроки эстрадного вокала в Санкт-Петербурге
Biffy Clyro - Mountains (Live)

Put this tab together watching both acoustic and electric live performances,
including when I saw them play it recently in Sheffield. 99.5% sure its correct.

http://uk.youtube.com/watch?v=Y85rNfkJRbk
http://uk.youtube.com/watch?v=VpR3gSDq9r4
http://uk.youtube.com/watch?v=EnNTSf8XPeA

Tuning: Drop Db


Intro (as Simon plays Live)
      Took a bite...  Thought i could...
eb|-2~---------------3~-------------|
Bb|-3~---------------3~-------------|
Gb|-4~---------------4~-------------| x2
Db|-4~---------------5~-------------|
Ab|-2~---------------5~-------------|
Db|---------------------------------|


Verse (Staccato)
eb|---------------------------------|
Bb|---------------------------------|
Gb|-4-4-4-4-4-4-----------------777-| x2
Db|-4-4-4-4-4-4-000-5-5-5-5-5-5-777-|
Ab|-2-2-2-2-2-2-000-5-5-5-5-5-5-555-|
Db|-------------000-5-5-5-5-5-5-000-|

eb|---------------------------------|
Bb|---------------------------------|
Gb|-2-2-2-2-2-2-----4-4-4-4-4-4-777-|
Db|-2-2-2-2-2-2-000-4-4-4-4-4-4-777-|
Ab|-0-0-0-0-0-0-000-2-2-2-2-2-2-555-|
Db|-------------000-------------000-|

eb|------------------------------------|
Bb|------------------------------------|
Gb|-2-2-2-2-2-2-----4-4-4-4-4-4--------|
Db|-2-2-2-2-2-2-000-4-4-4-4-4-4-111111-|
Ab|-0-0-0-0-0-0-000-2-2-2-2-2-2-111111-|
Db|-------------000-------------111111-|

Chorus
eb|----------------------|
Bb|----------------------|
Gb|----------7777--------| x2
Db|-0--12--0-7777-111111-|
Ab|-0--12--0-5555-111111-| (Elevens*)
Db|-0--12--0-0000-111111-|

eb|--------------------|
Bb|--------------------|
Gb|--------------------|
Db|-9--9--99999-111111-|
Ab|-9--9--99999-111111-|
Db|-9--9--99999-111111-|

eb|----------------------|
Bb|----------------------|
Gb|----------7777--------| x2
Db|-0--12--0-7777-111111-|
Ab|-0--12--0-5555-111111-|
Db|-0--12--0-0000-111111-|

eb|------------------|
Bb|------------------|
Gb|------------------|
Db|-9--9--99999-9999-|
Ab|-9--9--99999-9999-|
Db|-9--9--99999-9999-|

Bridge
   'cause you tear us apart...
eb|---------------------------------------------------------------------|
Bb|---------------------------------------------------------------------|
Gb|-14141414-14141414-14141414-1414-14141414-14141414-14141414-14141414-| x2
Db|-11111111-12121212-12121212-1212-11111111-12121212-12121212-12121212-|
Ab|-12121212-14141414-10101010-1212-12121212-14141414-10101010-12121212-|
Db|----------------------------1212----------------------------12121212-|

Verse

Chorus 2
eb|----------------------|
Bb|----------------------|
Gb|----------7777--------| x2
Db|-0--12--0-7777-111111-|
Ab|-0--12--0-5555-111111-|
Db|-0--12--0-0000-111111-|

eb|--------------------|
Bb|--------------------|
Gb|--------------------|
Db|-9--9--99999-111111-|
Ab|-9--9--99999-111111-|
Db|-9--9--99999-111111-|

eb|-------------------------------------|
Bb|-------------------------------------|
Gb|---------7777--------------7777-7777-|
Db|-0--12-0-7777-111111--12-0-7777-7777-|
Ab|-0--12-0-5555-111111--12-0-5555-5555-|
Db|-0--12-0-0000-111111--12-0-0000-0000-|

Bridge

Solo
eb|-----------------|---------------------|---------------------|-------------------------|
Bb|-----------------|---------------------|---------------------|-------------------------|
Gb|-4-4-4-4-6-6-6-6-|-7-7-7-7/14-14-14-12-|-11-11-11-11-9-9-9-9-|-12-12-12-12-12-12-12-12-|
Db|-x-x-x-x-x-x-x-x-|-x-x-x-x-x--x--x--x--|-x--x--x--x--x-x-x-x-|-x--x--x--x--x--x--x--x--|
Ab|-2-2-2-2-4-4-4-4-|-5-5-5-5/12-12-12-10-|-9--9--9--9--7-7-7-7-|-10-10-10-10-10-10-10-10-|
Db|-----------------|---------------------|---------------------|-------------------------|

eb|-----------------|-----------------|-------------------------|-------------------------|
Bb|-----------------|-----------------|-------------------------|-------------------------|
Gb|-7-7-7-7-6-6-6-6-|-9-9-9-9-9-9-7h9-|-11-11-11-11-11-11-11b12-|-11-11-11-11-11-11-11-11-|
Db|-x-x-x-x-x-x-x-x-|-x-x-x-x-x-x-x-x-|-x--x--x--x--x--x--x--x--|-x--x--x--x--x--x--x--x--|
Ab|-5-5-5-5-4-4-4-4-|-7-7-7-7-7-7-7-7-|-9--9--9--9--9--9--9--9--|-9--9--9--9--9--9--9--9--|
Db|-----------------|-----------------|-------------------------|-------------------------|

Break
    Nothing last forever...
eb|----------------------------------|
Bb|-------10101010-10101010-10101010-|
Gb|-------7-7-7-7--7-7-7-7--7-7-7-7--|
Db|-99-77-0-0-0-0--9-9-9-9--0-0-0-0--|
Ab|-99-77-9-9-9-9--10101010-9-9-9-9--|
Db|-99-77-0-0-0-0-----------0-0-0-0--|

   You are my mountain...
eb|-----------------------------|
Bb|-----------------------------|
Gb|-14141414-14141414-----------|
Db|-11111111-12121212-5555-2222-|
Ab|-12121212-14141414-5555-2222-|
Db|-------------------5555-2222-|

eb|----------------------------------|
Bb|-------10101010-10101010-10101010-|
Gb|-------7-7-7-7--7-7-7-7--7-7-7-7--|
Db|-99-77-0-0-0-0--9-9-9-9--0-0-0-0--|
Ab|-99-77-9-9-9-9--10101010-9-9-9-9--|
Db|-99-77-0-0-0-0-----------0-0-0-0--|

eb|----------------------------------|
Bb|----------------------------------|
Gb|-14141414-14141414----------------|
Db|-11111111-12121212-5555-55-111111-|
Ab|-12121212-14141414-5555-55-111111-|
Db|-------------------5555-55-111111-|

Outro Chorus
eb|----------------------|
Bb|----------------------|
Gb|----------7777--------| x2
Db|-0--12--0-7777-111111-|
Ab|-0--12--0-5555-111111-|
Db|-0--12--0-0000-111111-|

eb|-----------------|
Bb|-----------------|
Gb|-----------------|
Db|-9--9--99999-999-|
Ab|-9--9--99999-999-|
Db|-9--9--99999-999-|

eb|---------------------|
Bb|---------------------|
Gb|-7777-7777-xx-7777-x-|
Db|-7777-7777-xx-7777-x-|
Ab|-5555-5555-xx-5555-x-|
Db|-0000-0000-----------|

That's it, I know it looks weird in places, but that's the biff for you.
Enjoy!
Alex B.


Lyrics.

I took a bite out of a mountain range, thought my teeth would break the mountain.
Lets go, I want to go all the way to the horizon.

I took a drink out of the ocean and I'm treading water there before I drown.
Lets dive, I want to dive to the bottom of the ocean.
I took a ride, I took a ride, I wouldn't go there without you.
Lets take a ride, we'll take a ride. I wouldn't leave here without you.

I am a mountain, I am the sea, you can't take that away from me.
I am a mountain, I am the sea, you can't take that away from me.

'Cause you tear us apart, with all the things you don't like.
You can't understand that I won't leave 'til we're finished here, and then you'll find 
where it all went wrong.

I wrote a note to the jungle and it wrote me back that I was never crowned king of the 
so there's and end to my horizon.
I took a ride, I took a ride. I wouldn't go there without you.
Lets take a ride, we'll take a ride. I wouldn't leave here without you.

I am a mountain, I am the sea, you can't take that away from me.
I am a mountain, I am the sea.

'Cause you tear us apart, with all the things you don't like.
You can't understand that I won't leave 'til we're finished here, and then you'll find 
where it all went wrong.

Nothing lasts forever, except you and me. (You are my mountain, you are my sea)
Love will last forever, between you and me.(You are my mountain, you are my sea)

I am a mountain, I am the sea, you can't take that away from me.
I am a mountain, I am the sea.
I am a mountain, I am the sea
Добавлено: 15.04.2012
Другие материалы по этой песне:
  • Аккорды и текст

Страница создана 15.04.2012
http://primanota.ru/biffy-clyro/mountains-live-chords.htm
Привет, Гость.
Предлагаем пройти революционный курс по гитаре.
Подарок от PrimaNota.Ru, забирай!