PrimaNota.ru - самый крупный в мире бесплатный архив песенных текстов, аккордов, табулатур и нот


Biffy Clyro - Lonely Revolutions - таба, видео

Регистрация Запомнить меня
Войти через:  Facebook Google Twitter Vk Yandex Mail.ru

Biffy Clyro - Lonely Revolutions - таба, видео

Печатать
Просмотров: 162
-------------------------------------------------------------------------------
                    Lonely Revolutions - Biffy Clyro
-------------------------------------------------------------------------------
Tabbed by: steveprudden

Tuning: Drop C# (Drop D then half a step down)

Along with Party On and Toottoottoot (which should be tabbed later) this is one
of my favourite new b-sides. It's a pretty simple song so I'm sure this tab is
almost perfect.
Of course you could play it in drop D (just play everthing a fret lower), even
standard tuning would be easy enough but Biffy tend to play in Drop C#.
As always please let me know if there are any corrections that need to be made.


Intro (0:00)
D#|---------------------------------------------------------------------------|
A#|---------------------------------------------------------------------------|
F#|---------------------------------------------------------------------------|
C#|---------------------------------------------------------------------------|
G#|--8-9-10-11----------------------------------------------------------------|
C#|---------------------------------------------------------------------------|


Verse 1 (0:01)
Repeat x2 
D#|---------------------------------------------------------------------------|
A#|---------------------------------------------------------------------------|
F#|------------13--13--13-------------13--13--13-------------10-10-10---------|
C#|---------------------------------------------------------------------------|
G#|--8-9-10-11-11--11--11---8-9-10-11-11--11--11---11-10-9-8-8--8--8----------|
C#|---------------------------------------------------------------------------|

D#|---------------------------------------------------------------------------|
A#|---------------------------------------------------------------------------|
F#|------------10-10-10-------------------------------------------------------|
C#|---------------------------------------------------------------------------|
G#|--8-9-10-11-8--8--8--------------------------------------------------------|
C#|---------------------------------------------------------------------------|

 Then play this once to lead in to the next part
D#|---------------------------------------------------------------------------|
A#|---------------------------------------------------------------------------|
F#|---------------------------------------------------------------------------|
C#|---------------------------------------------------------------------------|
G#|--11-10-9-8----------------------------------------------------------------|
C#|---------------------------------------------------------------------------|


Pre Chorus (0:23)
Repeat x2
D#|---------------------------------------------------------------------------|
A#|--6-6-6--6---6-6-6--6---4-4-4--4---8-8-8--8--------------------------------|
F#|--6-6-6--6---6-6-6--6---5-5-5--5---8-8-8--8--------------------------------|
C#|--6-6-6--6---6-6-6--6---6-6-6--6---8-8-8--8--------------------------------|
G#|--4-4-4--4---4-4-4--4---6-6-6--6---6-6-6--6--------------------------------|
C#|------------------------6-6-6--6-------------------------------------------|


Chorus (0:40)
Repeat x2
D#|---------------------------------------------------------------------------|
A#|---------------------------------------------------------------------------|
F#|--17-15-13--13----12-10-8--8----10-8-6--6----17-15-13--12------------------|
C#|---------------------------------------------------------------------------|
G#|--15-13-11--11----10-8--6--6----8--6-4--4----15-13-11--10------------------|
C#|---------------------------------------------------------------------------|


Verse 2 Part 1 (0:57)
D#|---------------------------------------------------------------------------|
A#|---------------------------------------------------------------------------|
F#|--10-10-13----6--6--13----8--8--13----6--6--13-----------------------------|
C#|---------------------------------------------------------------------------|
G#|--8--8--11----4--4--11----6--6--11----4--4--11-----------------------------|
C#|---------------------------------------------------------------------------|

Verse 2 Part 2 (1:07)
Repeat x2
D#|---------------------------------------------------------------------------|
A#|---------------------------------------------------------------------------|
F#|--13-12-11-10-x-10-x-x-10-x-x-10-x-x-x-x-10-11-12-13-x-10-x-x-10-x-x-10----|
C#|--------------x----x-x----x-x----x-x-x-x-------------x----x-x----x-x-------|
G#|--11-10-9--8--x-8--x-x-8--x-x-8--x-x-x-x-8--9--10-11-x-8--x-x-8--x-x-8-----|
C#|---------------------------------------------------------------------------|

D#|---------------------------------------------------------------------------|
A#|---------------------------------------------------------------------------|
F#|--x-x-x-x-10-11-12-13-x-13-x-x-13-x-x-13-x-x-x-x-10-11-12-13-x-13-x-x-13---|
C#|--x-x-x-x-------------x----x-x----x-x----x-x-x-x-------------x----x-x------|
G#|--x-x-x-x-8--9--10-11-x-11-x-x-11-x-x-11-x-x-x-x-8--9--10-11-x-11-x-x-11---|
C#|---------------------------------------------------------------------------|

D#|---------------------------------------------------------------------------|
A#|---------------------------------------------------------------------------|
F#|--x-x-13-x-x-x-x-----------------------------------------------------------|
C#|--x-x----x-x-x-x-----------------------------------------------------------|
G#|--x-x-11-x-x-x-x-----------------------------------------------------------|
C#|---------------------------------------------------------------------------|

 Then play this once to lead in to the next part
D#|---------------------------------------------------------------------------|
A#|---------------------------------------------------------------------------|
F#|--13-12-11-10--------------------------------------------------------------|
C#|---------------------------------------------------------------------------|
G#|--11-10-9--8---------------------------------------------------------------|
C#|---------------------------------------------------------------------------|


Pre Chorus 2 (1:30) is the same as the first but with more strums

Chorus 2 (1:47) is the same as the first but with more strums


Outro (2:04)
Repeat x2
Same as verse 2 part 1 but strummed power chords (number of strums not shown):
D#|---------------------------------------------------------------------------|
A#|---------------------------------------------------------------------------|
F#|--10-10-13----6--6--13----8--8--13----6--6--13-----------------------------|
C#|--10-10-13----6--6--13----8--8--13----6--6--13-----------------------------|
G#|--8--8--11----4--4--11----6--6--11----4--4--11-----------------------------|
C#|---------------------------------------------------------------------------|


Final chords (2:25)
D#|---------------------------------------------------------------------------|
A#|---------------------------------------------------------------------------|
F#|--13-12-11-10--10--10--10--------------------------------------------------|
C#|---------------10--10--10--------------------------------------------------|
G#|--11-10-9--8---8---8---8---------------------------------------------------|
C#|---------------------------------------------------------------------------|


************************************

| /   slide up
| \   slide down
| h   hammer-on
| p   pull-off
| ~   vibrato
| +   harmonic
| x   Mute note
| b   Bend
| pb  Pre-bend
| br  Bend release
| pbr Pre-bend release
| brb Bend release bend

************************************
Добавлено: 26.03.2012
Другие материалы по этой песне:
  • Аккорды и текст

Страница создана 26.03.2012
http://primanota.ru/biffy-clyro/lonely-revolutions-chords.htm
Привет, Гость.
Предлагаем пройти революционный курс по гитаре.
Подарок от PrimaNota.Ru, забирай!