PrimaNota.ru - самый крупный в мире бесплатный архив песенных текстов, аккордов, табулатур и нот


Biffy Clyro - Loneliness - таба, видео

Регистрация Запомнить меня
Войти через:  Facebook Google Twitter Vk Yandex Mail.ru

Biffy Clyro - Loneliness - таба, видео

Печатать
Просмотров: 149
Уроки эстрадного вокала в Санкт-Петербурге
-------------------------------------------------------------------------------
                             Loneliness Acoustic - Biffy Clyro
-------------------------------------------------------------------------------
Tabbed by: Tom

Tuning: Drop D


Based on Biffy's performance of the song seen here:

https://www.youtube.com/watch?v=mXt8wvL5fSg

The strumming pattern can be a bit tricky, but the video should help with that.


Intro:

   D D  D U D  D U D  D U D       D D  D U D  D D  D D
e|-------------------------------------------------------|
B|---5--5-5-5--5-5-5--5-5-3---------5--5-5-5-------------|
G|---x--x-x-x--x-x-x--x-x-x---------x--x-x-x-------------|
D|---x--x-x-x--x-x-x--x-x-x-(x3)----x--x-x-x--3-3--10-10-|
A|-0-0--0-0-0--0-0-0--0-0-0-------0-0--0-0-0--3-3--10-10-|
D|--------------------------------------------3-3--10-10-|(x2)


Verse:

"I've got a flavor..."
e|-----------------------------------------------------|
B|---5--5-5-5--5-5-5--5-5-3-----5--5-5-5--5-5-5--5-5-5-|
G|---x--x-x-x--x-x-x--x-x-x-----x--x-x-x--x-x-x--x-x-x-|
D|---x--x-x-x--x-x-x--x-x-x-----x--x-x-x--x-x-x--x-x-x-|
A|-0-0--0-0-0--0-0-0--0-0-0---0-0--0-0-0--0-0-0--0-0-0-|
D|-----------------------------------------------------|

"but the world..."
e|---------------------------|
B|-1-------3-----------------|
G|-0-------0-----------------|
D|-2-------0------3-3--10-10-|
A|-3-(x8)--x-(x4)-3-3--10-10-|
D|---------5------3-3--10-10-|

"I've got a secret..."
e|-----------------------------------------------------|
B|---5--5-5-5--5-5-5--5-5-3-----5--5-5-5--5-5-5--5-5-5-|
G|---x--x-x-x--x-x-x--x-x-x-----x--x-x-x--x-x-x--x-x-x-|
D|---x--x-x-x--x-x-x--x-x-x-----x--x-x-x--x-x-x--x-x-x-|
A|-0-0--0-0-0--0-0-0--0-0-0---0-0--0-0-0--0-0-0--0-0-0-|
D|-----------------------------------------------------|

"shit looks like..."
e|---------------------------|
B|-1-------3-----------------|
G|-0-------0-----------------|
D|-2-------0------3-3--10-10-|
A|-3-(x8)--x-(x4)-3-3--10-10-|
D|---------5------3-3--10-10-|

"now..."
e|-------------------|
B|-3--------6--------|
G|-0--------7--------|
D|-0--------7--------|
A|-x--------5--------|
D|-5-(x16)--x--(x16)-|


Intro Riff:

e|-------------------------------------------------------|
B|---5--5-5-5--5-5-5--5-5-3---------5--5-5-5-------------|
G|---x--x-x-x--x-x-x--x-x-x---------x--x-x-x-------------|
D|---x--x-x-x--x-x-x--x-x-x-(x3)----x--x-x-x--3-3--10-10-|
A|-0-0--0-0-0--0-0-0--0-0-0-------0-0--0-0-0--3-3--10-10-|
D|--------------------------------------------3-3--10-10-|


Verse 2:

"I have a flavor..."
e|-----------------------------------------------------|
B|---5--5-5-5--5-5-5--5-5-3-----5--5-5-5--5-5-5--5-5-5-|
G|---x--x-x-x--x-x-x--x-x-x-----x--x-x-x--x-x-x--x-x-x-|
D|---x--x-x-x--x-x-x--x-x-x-----x--x-x-x--x-x-x--x-x-x-|
A|-0-0--0-0-0--0-0-0--0-0-0---0-0--0-0-0--0-0-0--0-0-0-|
D|-----------------------------------------------------|

"if you want..."
e|---------------------------|
B|-1-------3-----------------|
G|-0-------0-----------------|
D|-2-------0------3-3--10-10-|
A|-3-(x8)--x-(x4)-3-3--10-10-|
D|---------5------3-3--10-10-|

"Now if you think..."
e|-----------------------------------------------------|
B|---5--5-5-5--5-5-5--5-5-3-----5--5-5-5--5-5-5--5-5-5-|
G|---x--x-x-x--x-x-x--x-x-x-----x--x-x-x--x-x-x--x-x-x-|
D|---x--x-x-x--x-x-x--x-x-x-----x--x-x-x--x-x-x--x-x-x-|
A|-0-0--0-0-0--0-0-0--0-0-0---0-0--0-0-0--0-0-0--0-0-0-|
D|-----------------------------------------------------|

"I don't rate..."
e|---------------------------|
B|-1-------3-----------------|
G|-0-------0-----------------|
D|-2-------0------3-3--10-10-|
A|-3-(x8)--x-(x4)-3-3--10-10-|
D|---------5------3-3--10-10-|

"now..."
e|-------------------|
B|-3--------6--------|
G|-0--------7--------|
D|-0--------7--------|
A|-x--------5--------|
D|-5-(x16)--x--(x16)-|


Chorus:

e|---------------------------------------------------------|
B|-1------1------1------1------0------1------3------0------|
G|-2------2------2------0------1------2------2------1------|
D|-3------2------3------2------2------2------3------2------|
A|-3-(x8)-0-(x8)-3-(x8)-3-(x8)-2-(x8)-0-(x8)-0-(x8)-2-(x8)-|
D|---------------------------------------------------------|


Post Chorus: 

e|-----------------------------------------------------|
B|---5--5-5-5--5-5-5--5-5-3-----5--5-5-5--5-5-5--5-5-5-|
G|---x--x-x-x--x-x-x--x-x-x-----x--x-x-x--x-x-x--x-x-x-|
D|---x--x-x-x--x-x-x--x-x-x-----x--x-x-x--x-x-x--x-x-x-|
A|-0-0--0-0-0--0-0-0--0-0-0---0-0--0-0-0--0-0-0--0-0-0-|
D|-----------------------------------------------------|

"My girl is lookin'..."
e|---------------------------------------------------|
B|-1------3------6------1------1------3------6-------|
G|-0------0------7------2------0------0------7-------|
D|-2------0------7------2------2------0------7-------|
A|-3-(x8)-x-(x8)-5-(x8)-0-(x8)-3-(x8)-x-(x8)-5-(x16)-|
D|--------5---------------------------5--------------|


Chorus:

e|---------------------------------------------------------|
B|-1------1------1------1------0------1------3------0------|
G|-2------2------2------0------1------2------2------1------|
D|-3------2------3------2------2------2------3------2------|
A|-3-(x8)-0-(x8)-3-(x8)-3-(x8)-2-(x8)-0-(x8)-0-(x8)-2-(x8)-|
D|---------------------------------------------------------|(x2)


Outro:

e|----------------------------------|
B|---5--5-5-5--5-5-5--5-5-3-------5-|
G|---x--x-x-x--x-x-x--x-x-x-------x-|
D|---x--x-x-x--x-x-x--x-x-x-(x3)--x-|
A|-0-0--0-0-0--0-0-0--0-0-0-------0-|
D|----------------------------------|

************************************

| /   slide up
| \   slide down
| h   hammer-on
| p   pull-off
| ~   vibrato
| +   harmonic
| x   Mute note
| b   Bend
| pb  Pre-bend
| br  Bend release
| pbr Pre-bend release
| brb Bend release bend

************************************
Добавлено: 09.06.2015
Другие материалы по этой песне:
  • Аккорды и текст

Страница создана 09.06.2015
http://primanota.ru/biffy-clyro/loneliness-chords.htm
Привет, Гость.
Предлагаем пройти революционный курс по гитаре.
Подарок от PrimaNota.Ru, забирай!