PrimaNota.ru - самый крупный в мире бесплатный архив песенных текстов, аккордов, табулатур и нот


Biffy Clyro - Im Behind You - таба, видео

Регистрация Запомнить меня
Войти через:  Facebook Google Twitter Vk Yandex Mail.ru

Biffy Clyro - Im Behind You - таба, видео

Печатать
Просмотров: 200
OK. There was no tab for this. And I was bored last night and I just figured
out a way to play this. Note this probably isn't correct to how Simon Neil
plays it but it sounds good enough with the song. It's a good tune + it's
not too difficult. hope this tab is alright. :]

Its in DROP D tuning.

Start
|--------------------------------|
|-3p1------1------x-x-x-x-x------|
|-----0h2----2p0--2-2-2-2-2------|
|-----------------3-3-3-3-3------| Play this x4.
|-----------------3-3-3-3-3------|
|--------------------------------|

Intro
  F
|-1-----|
|-1-----|
|-2-----|
|-3-----|
|-3-----|
|-------|
strum around this chord adding these pull offs and hammer ons as you strum
during the intro, verses and wherever you think it should fit in whenever
you play. Add these to any chord where possible.
|-----     |-----|
|-----     |-3p1-|
|-0h2-     |-----|
|----- and |-----|
|-----     |-----|
|-----     |-----|

Verse
  F        D         A#    C      F
|-1-------------------------------1---|
|-1--------3---------------1------1---|
|-2--------2---------3-----2------2---|
|-3--------0---------3-----0------3---|
|-3--------0---------1-----3------3---|
|----------0--------------------------|
find out the strumming pattern yourself. tbh. when watching videos of this
song being played. i think simon neil plays some of the chords differently.
but these work.

Chorus
  A#       D        A#        D        A#    F     C
|--------------------------------------------1-------|
|----------3------------------3--------------1-----1-|
|-3--------2--------3---------2--------3-----2-----0-|
|-3--------0--------3---------0--------3-----3-----2-|
|-1--------0--------1---------0--------1-----3-----3-|
|----------0-----------------------------------------|
yeah. figure out chord length yourself and strumming patterns too.

Outro
  F       A#      C       F
|-1-----------------------1----|
|-1---------------1-------1----|
|-2-------3-------0-------2----|
|-3-------3-------2-------3----|
|-3-------1-------3-------3----|
|------------------------------|

Start
Intro
Verse x2
Chorus
Intro
Verse
Chorus x2
Outro x2
End.
Добавлено: 24.03.2012
Другие материалы по этой песне:
  • Аккорды и текст

Страница создана 28.02.2012
http://primanota.ru/biffy-clyro/im-behind-you-chords.htm
Привет, Гость.
Предлагаем пройти революционный курс по гитаре.
Подарок от PrimaNota.Ru, забирай!