PrimaNota.ru - самый крупный в мире бесплатный архив песенных текстов, аккордов, табулатур и нот


Biffy Clyro - I Hope Youre Done - текст песни, таба, видео

Регистрация Запомнить меня
Войти через:  Facebook Google Twitter Vk Yandex Mail.ru

Biffy Clyro - I Hope Youre Done - текст песни, таба, видео

Печатать
Просмотров: 145
Biffy Clyro - I Hope You're Done
Questions And Answers B Side

Tuning - Drop D (eBGDAD)

One Of Biffy's less well known amazing songs.
If you don't know it, I recommend you listen to it.
Good fun to play along with too. I've divided the 
tab into sections, just to make it slightly 
easier to understand.

Please rate and add any comments on improvements, if 
anybody even bothers with this tab!!

Mon The Biffy.

Intro

e|-7-----7-----7-----7-----7-----7-----7-----7------|
B|---7-----7-----7-----7-----7-----7-----7-----7----|
G|-----7-----7-----7-----7-----7-----7-----7-----7--|
D|--------------------------------------------------|
A|--------------------------------------------------|
D|--------------------------------------------------|



Verse 1

       'any time I wander...'
e|-7-----7-----7-----7-----9-----9-----9-----9------|
B|---7-----7-----7-----7-----7-----7-----7-----7----|
G|-----7-----7-----7-----7-----6-----6-----6-----6--|
D|--------------------------------------------------|
A|--------------------------------------------------|
D|--------------------------------------------------|

e|-10-----10-----10-----10-----12--------|
B|----7------7------7------7------10-----|
G|------0------0------0------0-------11--|
D|---------------------------------------|
A|---------------------------------------|
D|---------------------------------------|

e|-7-----7-----7-----7-----9-----9-----9-----9------|
B|---7-----7-----7-----7-----7-----7-----7-----7----|
G|-----7-----7-----7-----7-----6-----6-----6-----6--|
D|--------------------------------------------------|
A|--------------------------------------------------|
D|--------------------------------------------------|

e|-10-----10-----10-----10-----9------|
B|----7------7------7------7-----7----|
G|------0------0------0------0-----6--|
D|------------------------------------|
A|------------------------------------|
D|------------------------------------|

     'you are my...'
e|-2-----2-----2-----2-----0-----0-----0-----0------|
B|---3-----3-----3-----3-----3-----3-----3-----3----|
G|-----2-----2-----2-----2-----2-----2-----2-----2--|
D|--------------------------------------------------|
A|--------------------------------------------------|
D|--------------------------------------------------|

e|-3-----3-----3-----3-----6-----6-----6-----6------|
B|---3-----3-----3-----3-----7-----7-----7-----7----|
G|-----2-----2-----2-----2-----6-----6-----6-----6--|
D|--------------------------------------------------|
A|--------------------------------------------------|
D|--------------------------------------------------|



Chorus

e|---------------------------------------------------|
B|---------------------------------------------------|
G|-7-7-7-7-7-7-7-7-7-7-7-7--9-9-9-9-9-9-9-9-9-9-9-9--|
D|-5-5-5-5-5-5-5-5-5-5-5-5--7-7-7-7-7-7-7-7-7-7-7-7--|
A|-5-5-5-5-5-5-5-5-5-5-5-5--7-7-7-7-7-7-7-7-7-7-7-7--|
D|-5-5-5-5-5-5-5-5-5-5-5-5--7-7-7-7-7-7-7-7-7-7-7-7--|

e|-------------------------------------------|
B|-------------------------------------------|
G|-6-/--11-11-11-11-11-11-11-11-11-11-11-11--|
D|-4-/--9--9--9--9--9--9--9--9--9--9--9--9---|
A|-4-/--9--9--9--9--9--9--9--9--9--9--9--9---|
D|-4-/--9--9--9--9--9--9--9--9--9--9--9--9---|

e|-------12-12-12-12-12-12-12-12-12-12--|
B|-------12-12-12-12-12-12-12-12-12-12--|
G|-14-14-14-14-14-14-13-13-13-13-13-13--|
D|-12-12-12-12-12-12-12-12-12-12-12-12--|
A|-12-12-12-12-12-12-12-12-12-12-12-12--|
D|-12-12-12-12-12-12-12-12-12-12-12-12--|

e|------------------------------------------------------|
B|------------------------------------------------------|
G|-7-7-7-7-7-7-7-7-7-7-7-7--6-6/7--6-6/7--6-6/7--6-6/7--|
D|-5-5-5-5-5-5-5-5-5-5-5-5--4-4/5--4-4/5--4-4/5--4-4/5--|
A|-5-5-5-5-5-5-5-5-5-5-5-5--4-4/5--4-4/5--4-4/5--4-4/5--|
D|-5-5-5-5-5-5-5-5-5-5-5-5--4-4/5--4-4/5--4-4/5--4-4/5--|



Verse 2

e|-7-----7-----9-----7-----9-----9-----10-----9------|
B|---7-----7-----7-----7-----7-----7------7-----7----|
G|-----7-----7-----7-----7-----6-----6------6-----6--|
D|---------------------------------------------------|
A|---------------------------------------------------|
D|---------------------------------------------------|

e|-10-----10-----10-----10-----12-------12-------12-------14-12--|
B|----7------7------7------7------10-------10-------10-----------|
G|------0------0------0------0-------11-------11-------11--------|
D|---------------------------------------------------------------|
A|---------------------------------------------------------------|
D|---------------------------------------------------------------|

   'every time I wander...'
e|-7-----7-----7-----7-----9-----9-----9-----9------|
B|---7-----7-----7-----7-----7-----7-----7-----7----|
G|-----7-----7-----7-----7-----6-----6-----6-----6--|
D|--------------------------------------------------|
A|--------------------------------------------------|
D|--------------------------------------------------|

e|-10-----10-----10-----10-----12-------12-------12-------12---|
B|----7------7------7------7------10-------10-------10---------|
G|------0------0------0------0-------11-------11-------11------|
D|-------------------------------------------------------------|
A|-------------------------------------------------------------|
D|-------------------------------------------------------------|

e|-7-----7-----7-----7-----9-----9-----9-----9------|
B|---7-----7-----7-----7-----7-----7-----7-----7----|
G|-----7-----7-----7-----7-----6-----6-----6-----6--|
D|--------------------------------------------------|
A|--------------------------------------------------|
D|--------------------------------------------------|

e|-10-----10-----10-----10-----9-----9-----9-----9--|
B|----7------7------7------7-----7-----7-----7------|
G|------0------0------0------0-----6-----6-----6----|
D|--------------------------------------------------|
A|--------------------------------------------------|
D|--------------------------------------------------|

     'you are my...'
e|-2-----2-----2-----2-----0-----0-----0-----0------|
B|---3-----3-----3-----3-----3-----3-----3-----3----|
G|-----2-----2-----2-----2-----2-----2-----2-----2--|
D|--------------------------------------------------|
A|--------------------------------------------------|
D|--------------------------------------------------|

e|-3-----3-----3-----3-----6-----6-----6-----6------|
B|---3-----3-----3-----3-----7-----7-----7-----7----|
G|-----2-----2-----2-----2-----6-----6-----6-----6--|
D|--------------------------------------------------|
A|--------------------------------------------------|
D|--------------------------------------------------|



Chorus

     'open your eyelids...'
e|---------------------------------------------------|
B|---------------------------------------------------|
G|-7-7-7-7-7-7-7-7-7-7-7-7--9-9-9-9-9-9-9-9-9-9-9-9--|
D|-5-5-5-5-5-5-5-5-5-5-5-5--7-7-7-7-7-7-7-7-7-7-7-7--|
A|-5-5-5-5-5-5-5-5-5-5-5-5--7-7-7-7-7-7-7-7-7-7-7-7--|
D|-5-5-5-5-5-5-5-5-5-5-5-5--7-7-7-7-7-7-7-7-7-7-7-7--| 

e|-------------------------------------------|
B|-------------------------------------------|
G|-6-/--11-11-11-11-11-11-11-11-11-11-11-11--|
D|-4-/--9--9--9--9--9--9--9--9--9--9--9--9---|
A|-4-/--9--9--9--9--9--9--9--9--9--9--9--9---|
D|-4-/--9--9--9--9--9--9--9--9--9--9--9--9---|

e|-------12-12-12-12-12-12-12-12-12-12--|
B|-------12-12-12-12-12-12-12-12-12-12--|
G|-14-14-14-14-14-14-13-13-13-13-13-13--|
D|-12-12-12-12-12-12-12-12-12-12-12-12--|
A|-12-12-12-12-12-12-12-12-12-12-12-12--|
D|-12-12-12-12-12-12-12-12-12-12-12-12--|

e|---------------------------------------------------|
B|---------------------------------------------------|
G|-7-7-7-7-7-7-7-7-7-7-7-7--9-9-9-9-9-9-9-9-9-9-9-9--|
D|-5-5-5-5-5-5-5-5-5-5-5-5--7-7-7-7-7-7-7-7-7-7-7-7--|
A|-5-5-5-5-5-5-5-5-5-5-5-5--7-7-7-7-7-7-7-7-7-7-7-7--|
D|-5-5-5-5-5-5-5-5-5-5-5-5--7-7-7-7-7-7-7-7-7-7-7-7--|

e|-------------------------------------------|
B|-------------------------------------------|
G|-6-/--11-11-11-11-11-11-11-11-11-11-11-11--|
D|-4-/--9--9--9--9--9--9--9--9--9--9--9--9---|
A|-4-/--9--9--9--9--9--9--9--9--9--9--9--9---|
D|-4-/--9--9--9--9--9--9--9--9--9--9--9--9---|

e|-------12-12-12-12-12-12-12-12-12-12--|
B|-------12-12-12-12-12-12-12-12-12-12--|
G|-14-14-14-14-14-14-13-13-13-13-13-13--|
D|-12-12-12-12-12-12-12-12-12-12-12-12--|
A|-12-12-12-12-12-12-12-12-12-12-12-12--|
D|-12-12-12-12-12-12-12-12-12-12-12-12--|

e|----------------------------------------------------------|
B|----------------------------------------------------------|
G|-7-7-7-7-7-7-7-7-7-7-7-7--6-6/7--6-6/7--6-6/7-------------|
D|-5-5-5-5-5-5-5-5-5-5-5-5--4-4/5--4-4/5--4-4/5---feedback--|
A|-5-5-5-5-5-5-5-5-5-5-5-5--4-4/5--4-4/5--4-4/5-------------|
D|-5-5-5-5-5-5-5-5-5-5-5-5--4-4/5--4-4/5--4-4/5-------------|



Interlude

e|---------------------------------------------|
B|---------------------------------------------|
G|-7-7-7-7-7-7--10-10-10-10-10-10--------------|
D|-5-5-5-5-5-5--8--8--8--8--8--8---------------|
A|-5-5-5-5-5-5--8--8--8--8--8--8---------------|
D|-5-5-5-5-5-5--8--8--8--8--8--8---------------|

I couldn't tab the timing for this bit but its easy enough to work out.
e|---------------------------------------------|
B|---------------------------------------------|
G|-13-13-11-13-13-11-13-13-11-13-13-11---------|
D|-x--x--x--x--x--x--x--x--x--x--x--x----------|
A|-11-11-9--11-11-9--11-11-9--11-11-9----------|
D|-0--0--0--0--0--0--0--0--0--0--0--0----------|

e|---------------------------------------------|
B|---------------------------------------------|
G|-7-7-7-7-7-7--10-10-10-10-10-10--------------|
D|-5-5-5-5-5-5--8--8--8--8--8--8---------------|
A|-5-5-5-5-5-5--8--8--8--8--8--8---------------|
D|-5-5-5-5-5-5--8--8--8--8--8--8---------------|

e|---------------------------------------------|
B|---------------------------------------------|
G|-13-13-11-13-13-11-13-13-11-13-13-11---------|
D|-x--x--x--x--x--x--x--x--x--x--x--x----------|
A|-11-11-9--11-11-9--11-11-9--11-11-9----------|
D|-0--0--0--0--0--0--0--0--0--0--0--0----------|

   'what can feel you...'
e|---------------------------------------------|
B|---------------------------------------------|
G|-7-7-7-7-7-7--10-10-10-10-10-10--------------|
D|-5-5-5-5-5-5--8--8--8--8--8--8---------------|
A|-5-5-5-5-5-5--8--8--8--8--8--8---------------|
D|-5-5-5-5-5-5--8--8--8--8--8--8---------------|

e|---------------------------------------------|
B|---------------------------------------------|
G|-13-13-11-13-13-11-13-13-11-13-13-11---------|
D|-x--x--x--x--x--x--x--x--x--x--x--x----------|
A|-11-11-9--11-11-9--11-11-9--11-11-9----------|
D|-0--0--0--0--0--0--0--0--0--0--0--0----------|

e|---------------------------------------------|
B|---------------------------------------------|
G|-7-7-7-7-7-7--10-10-10-10-10-10--------------|
D|-5-5-5-5-5-5--8--8--8--8--8--8---------------|
A|-5-5-5-5-5-5--8--8--8--8--8--8---------------|
D|-5-5-5-5-5-5--8--8--8--8--8--8---------------|

e|---------------------------------------------|
B|---------------------------------------------|
G|-13-13-11-13-13-11-13-13-11-13-13-11---------|
D|-x--x--x--x--x--x--x--x--x--x--x--x----------|
A|-11-11-9--11-11-9--11-11-9--11-11-9----------|
D|-0--0--0--0--0--0--0--0--0--0--0--0----------|

Change strumming pattern and timing here.
e|---------------------------------------------|
B|---------------------------------------------|
G|-13-13-11-13-13-11---13-13-11-13-13-11-------|
D|-x--x--x--x--x--x----x--x--x--x--x--x--------|
A|-11-11-9--11-11-9----11-11-9--11-11-9--------|
D|-0--0--0--0--0--0----0--0--0--0--0--0--------|



2nd bit of interlude

e|----------------------------------------------------|
B|----------------------------------------------------|
G|-13-13-13-13-13-13-13-13-13-13-13-13--6-6/7--6-6/7--|
D|-x--x--x--x--x--x--x--x--x--x--x--x---4-4/5--4-4/5--|
A|-11-11-11-11-11-11-11-11-11-11-11-11--4-4/5--4-4/5--|
D|--------------------------------------4-4/5--4-4/5--|

e|----------------------------------------------------|
B|----------------------------------------------------|
G|-13-13-13-13-13-13-13-13-13-13-13-13--6-6/7--6-6/7--|
D|-x--x--x--x--x--x--x--x--x--x--x--x---4-4/5--4-4/5--|
A|-11-11-11-11-11-11-11-11-11-11-11-11--4-4/5--4-4/5--|
D|--------------------------------------4-4/5--4-4/5--|

e|----------------------------------------------------|
B|----------------------------------------------------|
G|-13-13-13-13-13-13-13-13-13-13-13-13----------------|
D|-x--x--x--x--x--x--x--x--x--x--x--x---0-4-5-0-4-5---|
A|-11-11-11-11-11-11-11-11-11-11-11-11--0-4-5-0-4-5---|
D|-0--0--0--0--0--0--0--0--0--0--0--0---0-4-5-0-4-5---|

e|----------------------------------------------------|
B|----------------------------------------------------|
G|-13-13-13-13-13-13-13-13-13-13-13-13----------------|
D|-x--x--x--x--x--x--x--x--x--x--x--x---0-4-5-0-4-5---|
A|-11-11-11-11-11-11-11-11-11-11-11-11--0-4-5-0-4-5---|
D|-0--0--0--0--0--0--0--0--0--0--0--0---0-4-5-0-4-5---|

e|----------------------------------------------------|
B|----------------------------------------------------|
G|-13-13-13-13-13-13-13-13-13-13-13-13----------------|
D|-x--x--x--x--x--x--x--x--x--x--x--x---0-4-5-0-4-5---|
A|-11-11-11-11-11-11-11-11-11-11-11-11--0-4-5-0-4-5---|
D|-0--0--0--0--0--0--0--0--0--0--0--0---0-4-5-0-4-5---|

e|---------------------------------------------------------------|
B|---------------------------------------------------------------|
G|-13-13-13-13-13-13-13-13-13-13-13-13---------------------------|
D|-x--x--x--x--x--x--x--x--x--x--x--x---0-4-5-0-4-5-0-4-5-0-4-5--|
A|-11-11-11-11-11-11-11-11-11-11-11-11--0-4-5-0-4-5-0-4-5-0-4-5--|
D|-0--0--0--0--0--0--0--0--0--0--0--0---0-4-5-0-4-5-0-4-5-0-4-5--|



Outro

   'I hope you're done...'
e|----------------------------------------------------|
B|----------------------------------------------------|
G|-11-11-11-11-11-11-11-11-11-11-11-11--7-7-7--9-9-9--|
D|-x--x--x--x--x--x--x--x--x--x--x--x---5-5-5--7-7-7--|
A|-9--9--9--9--9--9--9--9--9--9--9--9---5-5-5--7-7-7--|
D|-0--0--0--0--0--0--0--0--0--0--0--0---5-5-5--7-7-7--|

e|----------------------------------------------------|
B|----------------------------------------------------|
G|-11-11-11-11-11-11-11-11-11-11-11-11--7-7-7--9-9-9--|
D|-x--x--x--x--x--x--x--x--x--x--x--x---5-5-5--7-7-7--|
A|-9--9--9--9--9--9--9--9--9--9--9--9---5-5-5--7-7-7--|
D|-0--0--0--0--0--0--0--0--0--0--0--0---5-5-5--7-7-7--|

e|----------------------------------------------------|
B|----------------------------------------------------|
G|-11-11-11-11-11-11-11-11-11-11-11-11--7-7-7--9-9-9--|
D|-x--x--x--x--x--x--x--x--x--x--x--x---5-5-5--7-7-7--|
A|-9--9--9--9--9--9--9--9--9--9--9--9---5-5-5--7-7-7--|
D|-0--0--0--0--0--0--0--0--0--0--0--0---5-5-5--7-7-7--|

e|----------------------------------------------------|
B|----------------------------------------------------|
G|-11-11-11-11-11-11-11-11-11-11-11-11--7-7-7--9-9-9--|
D|-x--x--x--x--x--x--x--x--x--x--x--x---5-5-5--7-7-7--|
A|-9--9--9--9--9--9--9--9--9--9--9--9---5-5-5--7-7-7--|
D|-0--0--0--0--0--0--0--0--0--0--0--0---5-5-5--7-7-7--|



e|-------------------------------------------------|
B|-------------------------------------------------|
G|-5--------------11--------------10---------------|
D|-x--------------x---------------x----------------|
A|-3--------------9---------------8----------------|
D|-------------------------------------------------|

e|-------------------------------------------------|
B|-------------------------------------------------|
G|-10-10-10-10-10-10-10-10-10-10-9-10-11-------7---|
D|-x--x--x--x--x--x--x--x--x--x--x-x--x-------x----|
A|-8--8--8--8--8--8--8--8--8--8--7-8--9------5-----|
D|------------------------------------------0------|

Enjoy! (And please rate!)
Добавлено: 26.05.2012
Другие материалы по этой песне:
  • Аккорды и текст

Страница создана 14.04.2012
http://primanota.ru/biffy-clyro/i-hope-youre-done-chords.htm
Привет, Гость.
Предлагаем пройти революционный курс по гитаре.
Подарок от PrimaNota.Ru, забирай!