PrimaNota.ru - самый крупный в мире бесплатный архив песенных текстов, аккордов, табулатур и нот


Biffy Clyro - Hermaphrofight - таба, бас-таба, видео

Регистрация Запомнить меня
Войти через:  Facebook Google Twitter Vk Yandex Mail.ru

Biffy Clyro - Hermaphrofight - таба, бас-таба, видео

Печатать
Просмотров: 183
Song: Hermaphrofight
Artist: Biffy Clyro
Album: Machines (Single)

Tuning: Drop D

INTRO
Guitar 1
E|--------------------|-------------------------|-------------------------|
B|--------------------|-------------------------|-------------------------|
G|--------------------|-------5-----------5b----|-------5-----------5--4--|
D|--10-10--10-10--10--|---3-------3-3--3--------|---0-------0-0--0--------|
A|--8--8---7--7---7---|---3-------3-3--3--------|---0-------0-0--0--------|
D|--------------------|---3-------3-3--3--------|---0-------0-0--0--------|
Guitar 2
E|--------------------|-------13-15-------13-15-|-------13-15-------13-15-|
B|--------------------|-------------------------|-------------------------|
G|--------------------|-------------------------|-------------------------|
D|--------------------|-15-17-------15-17-------|-12-15-------12-15-------|
A|--------------------|-------------------------|-------------------------|
D|--------------------|-------------------------|-------------------------|

Guitar 1
E|-------------------------|-------------------------|
B|-------------------------|-------------------------|
G|-------5-----------5b----|-------5-----------5--4--|
D|---3-------3-3--3--------|---0-------0-0--0--------|
A|---3-------3-3--3--------|---0-------0-0--0--------|
D|---3-------3-3--3--------|---0-------0-0--0--------|
Guitar 2
E|-------13-15-------13-15-|-------13-15-------13-15-|
B|-------------------------|-------------------------|
G|-------------------------|-------------------------|
D|-15-17-------15-17-------|-12-15-------12-15-------|
A|-------------------------|-------------------------|
D|-------------------------|-------------------------|

Guitar 1
E|-------------------------|-------------------------|
B|-------------------------|-------------------------|
G|-------5-----------5--5--|-------5-----------5--4--|
D|---3-------3-3--3--------|---2-------2-2--2--------|
A|---3-------3-3--3--------|---3-------3-3--3--------|
D|---3-------3-3--3--------|---2-------2-2--2--------|
Guitar 2
E|-------13-15-------13-15-|-------13-15-------13-15-|
B|-------------------------|-------------------------|
G|-------------------------|-------------------------|
D|-15-17-------15-17-------|-14-15-------14-15-------|
A|-------------------------|-------------------------|
D|-------------------------|-------------------------|

Guitar 1
E|-------------------------|-------------------------|
B|-------------------------|-------------------------|
G|-------5-----------5--4--|-------5----------5b6b5--|
D|---0-------0-0--0--------|---0-------0-0--0--------|
A|---0-------0-0--0--------|---0-------0-0--0--------|
D|---0-------0-0--0--------|---0-------0-0--0--------|
Guitar 2
E|-------13-15-------13-15-|-------13-15-------13-15-|
B|-------------------------|-------------------------|
G|-------------------------|-------------------------|
D|-12-15-------12-15-------|-12-15-------12-15-------|
A|-------------------------|-------------------------|
D|-------------------------|-------------------------|


VERSE 1
(Nothing played by either guitar)

VERSE 2
Guitar 1
E|-----------------15--------|----------------15--------|
B|-----------13----------13--|----------13----------13--|
G|-----12--------------------|----12--------------------|
D|--15----15----15----15-----|-14----14----14----14-----|
A|---------------------------|--------------------------|
D|---------------------------|--------------------------|

E|-----------------15--------|----------------15--------|
B|-----------13----------13--|----------13----------13--|
G|-----12--------------------|----12--------------------|
D|--14----14----14----14-----|-14----14----14----14-----|
A|---------------------------|--------------------------|
D|---------------------------|--------------------------|

E|-----------------15--------|----------------15--------|
B|-----------13----------13--|----------13----------13--|
G|-----12--------------------|----12--------------------|
D|--15----15----15----15-----|-14----14----14----14-----|
A|---------------------------|--------------------------|
D|---------------------------|--------------------------|

E|-----------------15--------|-------------15-15-15-15--|
B|-----------13----------13--|-------13-13-13-13-13-13--|
G|-----10--------------------|-10-10-10-10-10-10-10-10--|
D|--12----12----12----12-----|-12-12-12-12-12-12-12-12--|
A|---------------------------|--------------------------|
D|---------------------------|--------------------------|


CHORUS 1
Guitar 1
E|------------------------------------|---------------------------|
B|------------------------------------|---------------------------|
G|--12--12--12--12--12--12--12--12-12-|--7--7--7--7--7--7--7--7-7-|
D|--10--10--10--10--10--10--10--10-10-|--5--5--5--5--5--5--5--5-5-|
A|--10--10--10--10--10--10--10--10-10-|--5--5--5--5--5--5--5--5-5-|
D|--10--10--10--10--10--10--10--10-10-|--5--5--5--5--5--5--5--5-5-|
Guitar 2
E|------------------------------------|---------------------------|
B|------------------------------------|---------------------------|
G|--5~--------------------------------|--7~-----------------------|
D|--------------5~--------------------|-----------5~--------------|
A|------------------------------------|---------------------------|
D|------------------------------------|---------------------------|

Guitar 1
E|---------------------------|---------------------------|
B|---------------------------|---------------------------|
G|--2--2--2--2--2--2--2--2-2-|--9--9--9--9--9--9--9--9-9-|
D|--0--0--0--0--0--0--0--0-0-|--7--7--7--7--7--7--7--7-7-|
A|--0--0--0--0--0--0--0--0-0-|--7--7--7--7--7--7--7--7-7-|
D|--0--0--0--0--0--0--0--0-0-|--7--7--7--7--7--7--7--7-7-|
Guitar 2
E|---------------------------|---------------------------|
B|---------------------------|---------------------------|
G|--10~------9~--------------|---------------------------|
D|--------------------10~----|--7~-----------------------|
A|---------------------------|---------------------------|
D|---------------------------|---------------------------|

Guitar 1
E|------------------------------------|---------------------------|
B|------------------------------------|---------------------------|
G|--12--12--12--12--12--12--12--12-12-|--7--7--7--7--7--7--7--7-7-|
D|--10--10--10--10--10--10--10--10-10-|--5--5--5--5--5--5--5--5-5-|
A|--10--10--10--10--10--10--10--10-10-|--5--5--5--5--5--5--5--5-5-|
D|--10--10--10--10--10--10--10--10-10-|--5--5--5--5--5--5--5--5-5-|
Guitar 2
E|------------------------------------|---------------------------|
B|------------------------------------|---------------------------|
G|--5~--------------------------------|--7~----------------9b-----|
D|--------------5~--------------------|-----------5~--------------|
A|------------------------------------|---------------------------|
D|------------------------------------|---------------------------|

Guitar 1
E|--------------------------|-----------15------------|
B|--------------------------|--------13----13---------|
G|--2--2--2--2--2--2--2--2--|-----12----------12------|
D|--0--0--0--0--0--0--0--0--|--15----------------15\--|
A|--0--0--0--0--0--0--0--0--|-------------------------|
D|--0--0--0--0--0--0--0--0--|-------------------------|
Guitar 2
E|--------------------------|-------------------------|
B|--------------------------|-------------------------|
G|--------------------------|-------------------------|
D|--7~----------------------|-------------------------|
A|--------------------------|-------------------------|
D|--------------------------|-------------------------|


INSTRUMENTAL
Guitar 1
E|-------------------------|-------------------------|
B|-------------------------|-------------------------|
G|-------5-----------5b----|-------5-----------5--4--|
D|---3-------3-3--3--------|---0-------0-0--0--------|
A|---3-------3-3--3--------|---0-------0-0--0--------|
D|---3-------3-3--3--------|---0-------0-0--0--------|

E|-------------------------|-------------------------|
B|-------------------------|-------------------------|
G|-------5-----------5b----|-------5-----------5--4--|
D|---3-------3-3--3--------|---0-------0-0--0--------|
A|---3-------3-3--3--------|---0-------0-0--0--------|
D|---3-------3-3--3--------|---0-------0-0--0--------|

E|-------------------------|----------------------|
B|-------------------------|----------------------|
G|-------5-----------5--4--|-------5-----------5--|
D|---3-------3-3--3--------|---2-------2-2--2-----|
A|---3-------3-3--3--------|---3-------3-3--3-----|
D|---3-------3-3--3--------|---2-------2-2--2-----|

E|-------------------------|-------------------------|
B|-------------------------|-------------------------|
G|-------5-----------5--4--|-------5-----------5--4--|
D|---0-------0-0--0--------|---0-------0-0--0--------|
A|---0-------0-0--0--------|---0-------0-0--0--------|
D|---0-------0-0--0--------|---0-------0-0--0--------|


VERSE 3
Guitar 1
E|-------------------------|-------------------------|
B|-------------------------|-------------------------|
G|--5~---------------------|-------------------------|
D|-------------------------|-------------------5~----|
A|-------------------------|-------------------------|
D|-------------------------|-------------------------|
Guitar 2
E|-------------------------|-------------------------|
B|-------------------------|-------------------------|
G|-------5-----------5--4--|-------5-----------5--4--|
D|---3-------3-3--3--------|---2-------2-2--2--------|
A|---3-------3-3--3--------|---3-------3-3--3--------|
D|---3-------3-3--3--------|---2-------2-2--2--------|

Guitar 1
E|-------------------------|-------------------------|
B|-------------------------|-------------------------|
G|-------------------------|-------------------------|
D|--7~---------------------|-------------------5b6b--|
A|-------------------------|-------------------------|
D|-------------------------|-------------------------|
Guitar 2
E|-------------------------|-------------------------|
B|-------------------------|-------------------------|
G|-------5-----------5--4--|-------5-----------5--4--|
D|---7-------7-7--7--------|---7-------7-7--7--------|
A|---7-------7-7--7--------|---7-------7-7--7--------|
D|---7-------7-7--7--------|---7-------7-7--7--------|

Guitar 1
E|-------------------------|-------------------------|
B|-------------------------|-------------------------|
G|--5~---------------------|-------------------------|
D|-------------------------|-------------------5~----|
A|-------------------------|-------------------------|
D|-------------------------|-------------------------|
Guitar 2
E|-------------------------|-------------------------|
B|-------------------------|-------------------------|
G|-------5-----------5--4--|-------5-----------5--4--|
D|---3-------3-3--3--------|---2-------2-2--2--------|
A|---3-------3-3--3--------|---3-------3-3--3--------|
D|---3-------3-3--3--------|---2-------2-2--2--------|

Guitar 1
E|-------------------------|-------------------------|
B|-------------------------|-------------------------|
G|-------------------------|-------------------------|
D|--7~---------------------|-------------------------|
A|-------------------------|-------------------------|
D|-------------------------|-------------------------|
Guitar 2
E|-------------------------|-------------------------|
B|-------------------------|-------------------------|
G|-------5-----------5--4--|-------5-----------5--4--|
D|---0-------0-0--0--------|---0-------0-0--0--------|
A|---0-------0-0--0--------|---0-------0-0--0--------|
D|---0-------0-0--0--------|---0-------0-0--0--------|


VERSE 4
(Repeat VERSE 3)


CHORUS 2
Guitar 1
E|------------------------------------|---------------------------|
B|------------------------------------|---------------------------|
G|--12--12--12--12--12--12--12--12-12-|--7--7--7--7--7--7--7--7-7-|
D|--10--10--10--10--10--10--10--10-10-|--5--5--5--5--5--5--5--5-5-|
A|--10--10--10--10--10--10--10--10-10-|--5--5--5--5--5--5--5--5-5-|
D|--10--10--10--10--10--10--10--10-10-|--5--5--5--5--5--5--5--5-5-|
Guitar 2
E|------------------------------------|---------------------------|
B|------------------------------------|---------------------------|
G|--5~--------------------------------|--7~-----------------------|
D|--------------5~--------------------|-----------5~--------------|
A|------------------------------------|---------------------------|
D|------------------------------------|---------------------------|

Guitar 1
E|---------------------------|---------------------------|
B|---------------------------|---------------------------|
G|--2--2--2--2--2--2--2--2-2-|--9--9--9--9--9--9--9--9-9-|
D|--0--0--0--0--0--0--0--0-0-|--7--7--7--7--7--7--7--7-7-|
A|--0--0--0--0--0--0--0--0-0-|--7--7--7--7--7--7--7--7-7-|
D|--0--0--0--0--0--0--0--0-0-|--7--7--7--7--7--7--7--7-7-|
Guitar 2
E|---------------------------|---------------------------|
B|---------------------------|---------------------------|
G|--10~------9~--------------|---------------------------|
D|--------------------10~----|--7~-----------------------|
A|---------------------------|---------------------------|
D|---------------------------|---------------------------|

Guitar 1
E|------------------------------------|---------------------------|
B|------------------------------------|---------------------------|
G|--12--12--12--12--12--12--12--12-12-|--7--7--7--7--7--7--7--7-7-|
D|--10--10--10--10--10--10--10--10-10-|--5--5--5--5--5--5--5--5-5-|
A|--10--10--10--10--10--10--10--10-10-|--5--5--5--5--5--5--5--5-5-|
D|--10--10--10--10--10--10--10--10-10-|--5--5--5--5--5--5--5--5-5-|
Guitar 2
E|------------------------------------|---------------------------|
B|------------------------------------|---------------------------|
G|--5~--------------------------------|--7~----------------9b-----|
D|--------------5~--------------------|-----------5~--------------|
A|------------------------------------|---------------------------|
D|------------------------------------|---------------------------|

Guitar 1
E|--------------------------|--------------------------|
B|--------------------------|--------------------------|
G|--2--2--2--2--2--2--2--2--|--5--5--5--5--5--5--5--5--|
D|--0--0--0--0--0--0--0--0--|--3--3--3--3--3--3--3--3--|
A|--0--0--0--0--0--0--0--0--|--3--3--3--3--3--3--3--3--|
D|--0--0--0--0--0--0--0--0--|--3--3--3--3--3--3--3--3--|
Guitar 2
E|--------------------------|--------------------------|
B|--------------------------|--------------------------|
G|--------------------------|--10-10-10-9--9--9--------|
D|--7~----------------------|--------------------10-10-|
A|--------------------------|--------------------------|
D|--------------------------|--------------------------|


CHORUS 3
(Repeat CHORUS 2)


INTERLUDE
Guitar 1
E|-------------------|------------------------|--------------------|
B|-------------------|------------------------|--------------------|
G|-------------------|------------------------|----------4---2-----|
D|--------7~---------|-------------------9----|--3------3~------3--|
A|-----7~------------|---------------12-------|--3-----3~----------|
D|--7~---------------|-----------11-----------|--3----3~-----------|

E|-------------------|------------------------|--------------------|
B|-------------------|------------------------|--------------------|
G|-------------------|------------4--2--4b----|----2---------------|
D|-------------------|--0~--------------------|--------------------|
A|-------------------|--0~--------------------|--------------------|
D|---------------3b--|--0~--------------------|--------------------|

E|-------------------|------------------------|
B|-------------------|------------------------|
G|----------10\9-----|------------------------|
D|----------5--------|----------10\9----------|
A|----------5--------|----------7-------------|
D|--5~------5--------|--6~------6-------------|

E|-------------------|------------------------|--------------------|
B|-------------------|------------------------|--------------------|
G|-------------------|------------------------|----------4---2-----|
D|--------7~---------|-------------------9----|--3------3~------3--|
A|-----7~------------|---------------12-------|--3-----3~----------|
D|--7~---------------|-----------11-----------|--3----3~-----------|

E|-------------------|------------------------|--------------------|
B|-------------------|------------------------|--------------------|
G|-------------------|------------4--2--4b----|----2---------------|
D|-------------------|--0~--------------------|--------------------|
A|-------------------|--0~--------------------|--------------------|
D|---------------3b--|--0~--------------------|--------------------|

E|-------------------|--------------------------|
B|-------------------|--------------------------|
G|----------10\9-----|--------------------------|
D|----------5--------|--6--6--6--6--6--6--6--6--|
A|----------5--------|--7--7--7--7--7--7--7--7--|
D|--5~------5--------|--6--6--6--6--6--6--6--6--|


INSTRUMENTAL
Guitar 1
E|-------------------------------|----------------------------|
B|-------------------------------|----------------------------|
G|--10--10--10--9--9--9--12--12--|--12--9--9--9--10--10-9--9--|
D|-------------------------------|----------------------------|
A|--8---8---8---7--7--7--10--10--|--10--7--7--7--8---8--7--7--|
D|-------------------------------|----------------------------|
Guitar 2
E|------15------15----15-----15--|--15-----15----15-----15----|
B|--13------13-----13----13------|------13----13-----13----13-|
G|-------------------------------|----------------------------|
D|-------------------------------|----------------------------|
A|-------------------------------|----------------------------|
D|-------------------------------|----------------------------|

Guitar 1
E|-------------------------------|----------------------------|
B|-------------------------------|----------------------------|
G|--10--10--10--9--9--9--12--12--|--12--9--9--9--10--10-9--9--|
D|-------------------------------|----------------------------|
A|--8---8---8---7--7--7--10--10--|--10--7--7--7--8---8--7--7--|
D|-------------------------------|----------------------------|
Guitar 2
E|--15------15-----15----15------|--15-----15----15-----15----|
B|------13------13----13-----13--|------13----13-----13----13-|
G|-------------------------------|----------------------------|
D|-------------------------------|----------------------------|
A|-------------------------------|----------------------------|
D|-------------------------------|----------------------------|

Guitar 1
E|-----------------------------|--------------------------|
B|-----------------------------|--------------------------|
G|--10--10--10--9--9--9--9--9--|--5--5--5--4--4--4--4--4--|
D|-----------------------------|--------------------------|
A|--8---8---8---7--7--7--7--7--|--3--3--3--2--2--2--2--2--|
D|-----------------------------|--------------------------|
Guitar 2
E|--15------15-----15----15----|--15----15----15----15----|
B|------13------13----13----13-|-----13----13----13----13-|
G|-----------------------------|--------------------------|
D|-----------------------------|--------------------------|
A|-----------------------------|--------------------------|
D|-----------------------------|--------------------------|

Guitar 1
E|-------------------------|-------------------------|
B|-------------------------|-------------------------|
G|-------5-----------5--4--|-------5-----------5--4--|
D|---0-------0-0--0--------|---0-------0-0--0--------|
A|---0-------0-0--0--------|---0-------0-0--0--------|
D|---0-------0-0--0--------|---0-------0-0--0--------|
Guitar 2
E|-------------------------|-------------------------|
B|-------------------------|-------------------------|
G|-------------------------|-------------------------|
D|-------------------------|-------------------------|
A|-------------------------|-------------------------|
D|-------------------------|-------------------------|

(Repeat the whole of INSTRUMENTAL)


CHORUS 4
(Repeat Chorus 2)


CHORUS 5
Guitar 1
E|------------------------------------|---------------------------|
B|------------------------------------|---------------------------|
G|--12--12--12--12--12--12--12--12-12-|--7--7--7--7--7--7--7--7-7-|
D|--10--10--10--10--10--10--10--10-10-|--5--5--5--5--5--5--5--5-5-|
A|--10--10--10--10--10--10--10--10-10-|--5--5--5--5--5--5--5--5-5-|
D|--10--10--10--10--10--10--10--10-10-|--5--5--5--5--5--5--5--5-5-|
Guitar 2
E|------------------------------------|---------------------------|
B|------------------------------------|---------------------------|
G|--5~--------------------------------|--7~-----------------------|
D|--------------5~--------------------|-----------5~--------------|
A|------------------------------------|---------------------------|
D|------------------------------------|---------------------------|

Guitar 1
E|---------------------------|---------------------------|
B|---------------------------|---------------------------|
G|--2--2--2--2--2--2--2--2-2-|--9--9--9--9--9--9--9--9-9-|
D|--0--0--0--0--0--0--0--0-0-|--7--7--7--7--7--7--7--7-7-|
A|--0--0--0--0--0--0--0--0-0-|--7--7--7--7--7--7--7--7-7-|
D|--0--0--0--0--0--0--0--0-0-|--7--7--7--7--7--7--7--7-7-|
Guitar 2
E|---------------------------|---------------------------|
B|---------------------------|---------------------------|
G|--10~------9~--------------|---------------------------|
D|--------------------10~----|--7~-----------------------|
A|---------------------------|---------------------------|
D|---------------------------|---------------------------|

Guitar 1
E|------------------------------------|---------------------------|
B|------------------------------------|---------------------------|
G|--12--12--12--12--12--12--12--12-12-|--7--7--7--7--7--7--7--7-7-|
D|--10--10--10--10--10--10--10--10-10-|--5--5--5--5--5--5--5--5-5-|
A|--10--10--10--10--10--10--10--10-10-|--5--5--5--5--5--5--5--5-5-|
D|--10--10--10--10--10--10--10--10-10-|--5--5--5--5--5--5--5--5-5-|
Guitar 2
E|------------------------------------|---------------------------|
B|------------------------------------|---------------------------|
G|--5~--------------------------------|--7~----------------9b-----|
D|--------------5~--------------------|-----------5~--------------|
A|------------------------------------|---------------------------|
D|------------------------------------|---------------------------|

Guitar 1
E|--------------------------|--------------------------|
B|--------------------------|--------------------------|
G|--2--2--2--2--2--2--2--2--|--5--5--5--5--5--5--5-----|
D|--0--0--0--0--0--0--0--0--|--3--3--3--3--3--3--3-----|
A|--0--0--0--0--0--0--0--0--|--3--3--3--3--3--3--3-----|
D|--0--0--0--0--0--0--0--0--|--3--3--3--3--3--3--3-----|
Guitar 2
E|--------------------------|--------------------------|
B|--------------------------|--------------------------|
G|--------------------------|--10-10-10-9--9--9--------|
D|--7~----------------------|--------------------10----|
A|--------------------------|--------------------------|
D|--------------------------|--------------------------|
Добавлено: 21.03.2012
Другие материалы по этой песне:

Страница создана 21.03.2012
http://primanota.ru/biffy-clyro/hermaphrofight-chords.htm
Привет, Гость.
Предлагаем пройти революционный курс по гитаре.
Подарок от PrimaNota.Ru, забирай!