PrimaNota.ru - самый крупный в мире бесплатный архив песенных текстов, аккордов, табулатур и нот


Biffy Clyro - Eradicate The Doubt - текст песни, таба, бас-таба, видео

Регистрация Запомнить меня
Войти через:  Facebook Google Twitter Vk Yandex Mail.ru

Biffy Clyro - Eradicate The Doubt - текст песни, таба, бас-таба, видео

Печатать
Просмотров: 178
-----------------------------------------------------------------------------
                      ERADICATE THE DOUBT - Biffy Clyro
-----------------------------------------------------------------------------

Tuning: Drop D (DADGBE)

The tab is laid out more or less in order.

| p  pull-off
| /  slide up
| \  slide down
| x  Mute note

-Intro/Verse
e|------------------------------------------------------------------
B|-----3-------3-------3--------7-------10--10------------------10\-
G|-------2-------2-------2--------------------------11--11----------
D|---0-------0-------0-------7----7---------------------------------
A|------------------------------------------------------------------
D|-0-------4-------3-------7--------0-------------------------------

e|--------------8--8------------------12/-------------------------
B|-33--33/55--------------10--10------------22-2------------------
G|------------------------------------------22-2-5\---------------
D|-33--33/55--------------------------------22-2-5\---------------
A|-33--33/55--------------------------------00-0-3\---------------
E|-33--33/55-00---------------------------------------------------


-First Chorus:
Main Riff x8 
e|-------------------
B|-------------------
G|-------------------
D|-5-5/-777777777777-
A|-3-3/-555555555555-
E|-------------------

Second Bit     ("Scare me now..." etc)     
e|----------------------------------------------------------------
B|----------------------------------------------------------------
G|---------------------------------------------7p0--07-X7--77-7\--
D|-------------------------------------------7----9---------------
A|-0--2--3/-10--8---8--888--88-8x9--7--0--8-----------------------
E|-0--2--3/-10--8---8--888--88-8x9--7--0--------------------------

e|----------------------------------------------------------------
B|----------------------------------------------------------------
G|---------------------------------------------7p0--05-X7--77-7\--
D|-------------------------------------------7----9---------------
A|-0--2--3/-10--8---8--888--88-8x9--7--0--8-----------------------
E|-0--2--3/-10--8---8--888--88-8x9--7--0--------------------------

-Verse (see above)

-Second Chorus:
Just before the second chorus, there is a different part based on the main riff:

repeat x4...                                ...Then:
e|--------------------------------------------|-------------------
B|--------------------------------------------|----------10-8-----
G|-9--9/--11-11-11-11-11-11-11-11-11-11-11-11-|-10---9-0------10--
D|-10-10/-12-12-12-12-12-12-12-12-12-12-12-12-|-------------------
A|-10-10/-12-12-12-12-12-12-12-12-12-12-12-12-|-------------------
E|--------------------------------------------|-------------------

Main riff (see above) x4

Then another riff:  ("A-List with an alias...")
Repeat x4
e|-------------------
B|-------------------
G|-------------------
D|-------------------
A|-0-0--111111111111-
E|-0-0--111111111111- (Ones= 1st fret, not 11th!)

Main riff x4 ("Eradicate the Doubt..." etc)

Then:                ("Tackling, it's in a cool, cold slipstream..." etc)
                      
e|--------------------|-------------------------------------------
B|----------10-8------|8----8--8----8----8--8--8--8--8--8--8--8---
G|-10---9-7------10-0-|9----9--9----9----9--9--9--9--9--9--9--9---
D|--------------------|10---10-10---10---10-10-10-10-10-10-10-10--
A|--------------------|-------------------------------------------
E|--------------------|-------------------------------------------

e|-------------------------------------------|--------------------
B|-10---10-10---10---10-10-10-10-10-10-10-10-|10---10-10---10---10
G|-10---10-10---10---10-10-10-10-10-10-10-10-|10---10-10---10---10
D|-12---12-12---12---12-12-12-12-12-12-12-12-|8----8--8----8----8-
A|-------------------------------------------|--------------------
E|-------------------------------------------|--------------------

e|----------------------|-----------------------------------------|
B|-10-10-10-10-10-10-10-|-----------------------------------------|
G|-10-10-10-10-10-10-10-|-----17-x-1515-171717-x-15x--------------|
D|-8--8--8--8--8--8--8--|-----------------------------------------|
A|----------------------|-----15-x-1212-151515-x-12x--------------|
E|----------------------|0--0-0--0-0-0--0-0-0--0-0-0--------------|Repeat x2

-Second bit of chorus 1 ("Scare me now..." etc)

Then:
e|--------------------------------------------------------------------------
B|----------------------------------------------------10--10--10--10--10--10
G|----------------------------------------------------10--10--10--10--10--10
D|0------0-------x--x-----------x--0---0--0-----------8---8---8---8---8---8-
A|0------0-------x--x-----------x--0---0--0---------------------------------
E|0------0-------x--x-----------x--0---0--0---------------------------------

e|----------------------------------------------------12---------------------
B|------------------------------------------------------------13-------------
G|--------------------------------------------------------------------14\----
D|0------0-------x--x-----------x--0---0--0---------------------------------0
A|0------0-------x--x-----------x--0---0--0---------------------------------0
E|0------0-------x--x-----------x--0---0--0---------------------------------0

e|---------------------------------------------------------------------------
B|--------------------------------------------------10--10--10--10--10--10---
G|--------------------------------------------------10--10--10--10--10--10---
D|0------0-------x--x----------x--0---0--0----------8---8---8---8---8---8--0-
A|0------0-------x--x----------x--0---0--0---------------------------------0-
E|0------0-------x--x----------x--0---0--0---------------------------------0-

e|---------------------------------------------------12------------------|
B|-----------------------------------------------------------13----------|
G|-------------------------------------------------------------------14\-|
D|0------0-------x--x----------x--0---0--0-------------------------------|
A|0------0-------x--x----------x--0---0--0-------------------------------|
E|0------0-------x--x----------x--0---0--0-------------------------------|

Arpeggios: (repeat x 2)
e|---------------------|5--------------------|8------------------|
B|--------------6------|-------6-------------|-------8-----------|
G|-------7-------------|--------------7------|--------------9----|
D|8--------------------|---------------------|-------------------|
A|---------------------|---------------------|-------------------|
E|---------------------|---------------------|-------------------|

                       
e|---------------------|
B|5--------------------|
G|-------5-------------|
D|--------------7------|
A|---------------------|
E|---------------------|

Then:
e|---------------------|5--------------------|8--------------------|
B|--------------6------|-------6-------------|8--------------------|
G|-------7-------------|--------------7------|9--------------------|
D|8--------------------|---------------------|---------------------|
A|---------------------|---------------------|---------------------|
E|---------------------|---------------------|---------------------|


Final section

e|----------------------------|----------------------------|
B|----------------------------|----------------------------|
G|-----17-x-1515-171717-151515|-----16-x-1313-131616-16x-x-|
D|----------------------------|----------------------------|
A|-----15-x-1212-151515-121212|-----14-x-1111-111414-14x-x-|
E|0--0-0--0-0-0--0-0-0--0-0-0-|0--0-0--0-0-0--0-0-0--0-0-0-|

"Take me to your heart..."
e|---------------------------------------------------------|
B|8-----8---8-----8---8---8-----8---8---8---8---8---8---8--|
G|9-----9---9-----9---9---9-----9---9---9---9---9---9---9--|
D|10----10--10----10--10--10----10--10--10--10--10--10--10-|
A|10----10--10----10--10--10----10--10--10--10--10--10--10-|
E|10----10--10----10--10--10----10--10--10--10--10--10--10-|

e|---------------------------------------------------------|
B|10----10--10----10--10--10----10--10--10--10--10--10--10-|
G|10----10--10----10--10--10----10--10--10--10--10--10--10-|
D|8-----8---8-----8---8---8-----8---8---8---8---8---8---8--|
A|8-----8---8-----8---8---8-----8---8---8---8---8---8---8--|
E|8-----8---8-----8---8---8-----8---8---8---8---8---8---8--|

repeat the last 3 rows x2, then:

e|-------------------------------------------------------------------
B|10--10------10--10------10--10------10--10------10--10------10--10-
G|10--10------10--10------10--10------10--10------10--10------10--10-
D|8---8-------8---8-------8---8-------8---8-------8---8-------8---8--
A|-------------------------------------------------------------------
E|-------------------------------------------------------------------

e|----------------------------------------------------
B|10--10------10--10----------------------------------
G|10--10------10--10-----------10---9----------10---9-
D|8---8-------8---8--------8---------------8----------
A|----------------------------------------------------
E|----------------------------------------------------

Another riff: (repeat x2)
e|-------------------------------------------------------------------------|
B|-------------------------------------------------------------------------|
G|-------------------------------------------------------------------------|
D|3---------/7---------0---------3---------2---------3--------/7---------0-|
A|3---------/7---------0---------3---------2---------3--------/7---------0-|
E|3---------/7---------0---------3---------2---------3--------/7---------0-|


e|------------------------------|
B|------------------------------|
G|----10---9----------10---9----|
D|8---------------8-------------|
A|------------------------------|
E|------------------------------|

Then:
e|10---10------10---10------10---10------10---10------10---10----
B|11---11------11---11------11---11------11---11------11---11----
G|---------------------------------------------------------------
D|---------------------------------------------------------------
A|---------------------------------------------------------------
E|---------------------------------------------------------------

e|11---11------13---13------11---11-----------------------------------
B|11---11------11---11------11---11-----------------------------------
G|-------------------------------------------10---9----------10---9---
D|---------------------------------------8---------------8------------
A|--------------------------------------------------------------------
E|--------------------------------------------------------------------

And finally:
e|-------------------------------------------------------------------------|
B|-------------------------------------------------------------------------|
G|-------------------------------------------------------------------------|
D|3---------/7---------0---------3---------2---------3--------/7---------0-|
A|3---------/7---------0---------3---------2---------3--------/7---------0-|
E|3---------/7---------0---------3---------2---------3--------/7---------0-|

e|------------------------------------------------------------------------|
B|------------------------------------------------------------------------|
G|----10---9----------10---9----------10---9----------10---9--------------|
D|8---------------8---------------8---------------8-----------------------|
A|------------------------------------------------------------------------|
E|------------------------------------------------------------------------|
Добавлено: 24.05.2012
Другие материалы по этой песне:

Страница создана 21.02.2012
http://primanota.ru/biffy-clyro/eradicate-the-doubt-chords.htm
Привет, Гость.
Предлагаем пройти революционный курс по гитаре.
Подарок от PrimaNota.Ru, забирай!