PrimaNota.ru - самый крупный в мире бесплатный архив песенных текстов, аккордов, табулатур и нот


Biffy Clyro - Do You Remember What You Came For - текст песни, таба, видео

Регистрация Запомнить меня
Войти через:  Facebook Google Twitter Vk Yandex Mail.ru

Biffy Clyro - Do You Remember What You Came For - текст песни, таба, видео

Печатать
Просмотров: 204
got it off site but thought i'd post it

e]--0--0-x-0-0--2--3--x-3-3-3-3-3-3-3--|
b]--0--0-x-3-3--0--0--x-0-0-0-0-0-0-0--|
g]--0--0-x-2-2--2--0--x-0-0-0-0-0-0-0--|
d]--2--2-x-0-0--0--2--x-0-0-0-0-0-0-0--|
a]--2--2-x------2--3--x-2-2-2-2-2-2-2--|
e]--0--0-x------------x-3-3-3-3-3-2-0--|

e]--0--0-x-x-0-0-x-0--0------------------|
b]--0--0-x-x-1-1-x-1--1-------1-------3--|
g]--0--0-x-x-2-2-x-0--0-----0-------0----|
d]--2--2-x-x-3-3-x-2--2---2-------4------|
a]--2--2-x-x-----x-3--3-3-------5--------|
e]--0--0-x-x-----x-----------------------|

Repeat x 3

e]--0--0--0-0-0--0-0--0--0---0--0-0--0-0--|
b]--3--3--8-8\7--7-7--0--0---0--0-0--0-0--|
g]--0--0--0-0-0--0-0--0--0---0--0-0--0-0--|
d]--4--4--5-5-5--5-5--10-10--10-9-9--5-5--|
a]--5--5--7-7-7--7-7--10-10--10-9-9--5-5--|
e]--------------------8--8---8--7-7--3-3--|

e]--0--0--0-0-0--0-0--0--0---0--0-0--0-0/--|
b]--3--3--8-8\7--7-7--0--0---0--0-0--0-0/--|
g]--0--0--0-0-0--0-0--0--0---0--0-0--0-0/--|
d]--4--4--5-5-5--5-5--10-10--10-9-9--5-5/--|
a]--5--5--7-7-7--7-7--10-10--10-9-9--5-5/--|
e]--------------------8--8---8--7-7--3-3/--|

e]--0--0--0--0--0--0---0-0--0-0--|
b]--0--0--0--0--0--0---8\7--7-7--|
g]--0--0--0--0--0--0---0-0--0-0--|
d]--10-10-10-10-10-10--5-5--5-5--|
a]--10-10-10-10-10-10--7-7--7-7--|
e]--8--8--8--8--8--8-------------|

e]--2--2--2~--2-2-2-2~--2-2---3--3--3----------3-3--3-3-3-3--|
b]--0--0--0~--0-0-0-0~--0-0---0--0--0-3po0---0-0-0--0-0-0-0--|
g]--2--2--2~--2-2-2-2~--2-2---0--0--0------3---0-0--0-0-0-0--|
d]--0--0--0~--0-0-0-0~--0-0---2--2--2----------0-0--0-0-0-0--|
a]--2--2--2~--2-2-2-2~--2-2-0-3--3--3----------2-2--2-2-2-2--|
e]---------------------------------------------3-3--3-3-3-3--|

e]--3--3-x-x-3po0----------3-3--3-3-3-3--|
b]--0--0-x-x------3po0---0-0-0--0-0-0-0--|
g]--0--0-x-x-----------3---0-0--0-0-0-0--|
d]--2--2-x-x---------------0-0--0-0-0-0--|
a]--3--3-x-x---------------2-2--2-2-2-2--|
e]-------x-x---------------3-3--3-3-3-3--|

e]--0--0--0---0-0-0-0-0--0--0--x-x--|
b]--1--1--1---1-1-1-1-1--1--1--x-x--|
g]--2--2--2---2-2-2-2-0--0--0--x-x--|
d]--3--3--3---3-3-3-3-2--2--2--x-x--|
a]--------------------3--3--3--x-x--|
e]----------------------------------|
Добавлено: 22.05.2012
Другие материалы по этой песне:
  • Аккорды и текст

Страница создана 28.04.2012
http://primanota.ru/biffy-clyro/do-you-remember-what-you-came-for-chords.htm
Привет, Гость.
Предлагаем пройти революционный курс по гитаре.
Подарок от PrimaNota.Ru, забирай!