PrimaNota.ru - самый крупный в мире бесплатный архив песенных текстов, аккордов, табулатур и нот


Biffy Clyro - Break A Butterfly On A Wheel - таба, видео

Регистрация Запомнить меня
Войти через:  Facebook Google Twitter Vk Yandex Mail.ru

Biffy Clyro - Break A Butterfly On A Wheel - таба, видео

Печатать
Просмотров: 95
Авторы музыки: Biffy Clyro
Авторы текста: Simon Neil
------------------------------------------------------------------------------
                     Break A Butterfly On A Wheel - Biffy Clyro

------------------------------------------------------------------------------
Tabbed by: @St4rsAndShites (Twitter)


Tuning: DADGBe (drop d)

Order:

Intro (I)
Accompanied Intro (II)
Verse (I)
Pre-chorus (II + I)
Chorus (III)
Verse (I)
Pre-chorus (II + I)
Chorus (III)
Bridge (IV)
Outro (I)


(I)
|---------------------------------------------------------------------------|
|-----------1-1-------0--------0-0-----------------1-1-------3--------------|
|-----------0-0-0---0----------0-0-0-----0---------0-0-0---0----------------|
|----h-h------------------h-h----------2------h-h---------------------------|
|--0-2-3-3--------3-----0-2-3-3------3------0-2-3-3------3------------------|
|---------------------------------------------------------------------------|

|---------------------------------------------------------------------------|
|----------1-1--------------------------------------------------------------|
|----------0-0-0-----0------------------------------------------------------|
|---h-h------------2--------------------------------------------------------|
|-0-2-3-3--------3----------------------------------------------------------|
|---------------------------------------------------------------------------|

(II)
|---------------------------------------------------------------------------|
|---------1-1-------3--/5------5-5-------3----------------------------------|
|---------0-0-0---0-----0------0-0-0---0------------------------------------|
|-----------------------------------------------(x2)------------------------|
|---h-h---------------------------------------------------------------------|
|-0-2-3-3-------3---------3-3--------3--------------------------------------|

(III)
     Dm      F      Am      G
|---------------------------------------------------------------------------|
|----6-------6--------------------------------------------------------------|
|----7-------5------9-------7-------(repeat chords)-------------------------|
|----7-------3------10------5-----------------------------------------------|
|----5-------3------7-------5-----------------------------------------------|
|------------3------7-------5-----------------------------------------------|

(IV)
    F   Am  F   C  F   Am  Em  F
|---------------------------------------------------------------------------|
|---------------5-----------------------------------------------------------|
|---5---9---5---5--5---9---4---5--------------------------------------------|
|---3---10--3---5--3---10--5---3--------------------------------------------|
|---3---7---3---3--3---7---2---3--------------------------------------------|
|---3---7---3------3---7---2---3--------------------------------------------|

************************************

| /   slide up
| \   slide down
| h   hammer-on
| p   pull-off
| ~   vibrato
| +   harmonic
| x   Mute note
| b   Bend
| pb  Pre-bend
| br  Bend release
| pbr Pre-bend release
| brb Bend release bend

************************************
Добавлено: 17.05.2014
Другие материалы по этой песне:
  • Аккорды и текст

Страница создана 17.05.2014
http://primanota.ru/biffy-clyro/break-a-butterfly-on-a-wheel-chords.htm
Привет, Гость.
Предлагаем пройти революционный курс по гитаре.
Подарок от PrimaNota.Ru, забирай!