PrimaNota.ru - самый крупный в мире бесплатный архив песенных текстов, аккордов, табулатур и нот


Biffy Clyro - A Man Of His Appalling Posture - текст песни, таба, видео

Регистрация Запомнить меня
Войти через:  Facebook Google Twitter Vk Yandex Mail.ru

Biffy Clyro - A Man Of His Appalling Posture - текст песни, таба, видео

Печатать
Просмотров: 120
Intro:
E|----------------------------------------------------|
B|---11-11-11-11-11-11-11-11-11-11-11-11-11-11-11-x-x-|
G|---10-10-10-10-10-10-10-10-10-10-10-10-10-10-10-x-x-|
D|---8--8--8--8--8--8--8--8--8--8--8--8--8--8--8--x-x-|
A|----------------------------------------------------|
D|----------------------------------------------------|

E|----------------------------------------------|
B|---10-10-10-10-10-10-10-10-10-10-10-10-10\----|
G|---10-10-10-10-10-10-10-10-10-10-10-10-10\----|
D|---8--8--8--8--8--8--8--8--8--8--8--8--8\-----|
A|----------------------------------------------|
D|----------------------------------------------|


(Listen to recording to work out pattern)
  
E|-----------------|-----------|--------|
B|---13------12----|-----13----|---12---| Repeat 3 times
G|---12------12----|-----12----|---12---| then only play first bar before 
D|---10------10----|-----10----|---10---| going into the next section
A|-----------------|-----------|--------|
D|-----------------|-----------|--------|


Pre-Verse:
E|-------------------------------|--------------------------------|
B|-------------------------------|--------------------------------|
G|-------------------------------|--------------------------------|
D|-----------------------------6-|-------------------------9\7-11-|
A|-7p0-0-7p0-0-7p0-0-7p0-0-7p0---|-7p0-0-7p0-0-7p0-0-7h9/11-------|
D|-------------------------------|--------------------------------|

Verse:
E|----------------|     E|-------------------|
B|----------------|     B|-------------------|
G|-------9p7------|     G|--6-6-6-6-6-6-6-6--|
D|--6h7h9---9/11--|x12  D|--4-4-4-4-4-4-4-4--|x8
A|----------------|     A|--4-4-4-4-4-4-4-4--|
D|----------------|     D|--4-4-4-4-4-4-4-4--|


E|----------------|     E|-------------------|
B|----------------|     B|-------------------|
G|-------9p7------|     G|--6-6-6-6-6-6-6-6--|
D|--6h7h9---9/11--|x8   D|--4-4-4-4-4-4-4-4--|x8
A|----------------|     A|--4-4-4-4-4-4-4-4--|
D|----------------|     D|--4-4-4-4-4-4-4-4--|


Chorus:
E|---------|---------|---------|---------|---------------|-------------|
B|---------|---------|---------|---------|-------9--9--9-|-9--9--9/10--|
G|-7-7-7-7-|-7-7-7-7-|-7-7-7-7-|-7-7-7-7-|-------9--9--9-|-9--9--9-----|
D|-7-7-7-7-|-7-7-7-7-|-7-7-7-7-|-7-7-7-7-|-7--7--7--7--7-|-7--7--7-----| x2
A|-5-5-5-5-|-5-5-5-5-|-5-5-5-5-|-5-5-5-5-|-7--7--7--7--7-|-7--7--7-----|
D|-0-0-0-0-|-0-0-0-0-|-0-0-0-0-|-0-0-0-0-|-7--7----------|-------------|

 (Driving Chords)      V               V          (V = Played Quickly)
E|-----|--4--|----------|----------------|
B|-----|--5--|----------|----------------|
G|--9--|--6--|--11-----9|-11----14-----16|
D|--9--|--4--|--x------x|-x-----x------x-|
A|--7--|--4--|--9------7|-9-----12-----14|
D|-----|--4--|--0------0|-0-----0------0-|


E|-----|--4--|--4--|--------------------------------|
B|-----|--5--|--5--|--7\--------14---14\------------|
G|--9--|--6--|--6--|--7\--x-x-x-14---14\---x-x-x----|
D|--9--|--4--|--7--|--7\--x-x-x-14---14\---x-x-x--0-|
A|--7--|--4--|--4--|--5\--x-x-x-0----0-----x-x-x--0-|
D|-----|--4--|-----|------------0----0------------0-|


Break:
E|------------------------------------|
B|------------------------------------|
G|--------5--2--x--5--2--2--2-2-2-2-2-|
D|------x----5--x-----4--3--3-3-3-3-2-|x2
A|---7--x-----------------------------|
D|---7--------------------------------|

E|----------------------------------|
B|----------------------------------|
G|--7-7-7-7-7-7-7-7-7-7-7-7-7-7-7-7-|
D|--7-7-7-7-7-7-7-7-7-7-7-7-7-7-7-7-|
A|--5-5-5-5-5-5-5-5-5-5-5-5-5-5-5-5-|
D|--0-0-0-0-0-0-0-0-0-0-0-0-0-0-0-0-|


Then plays first Bar of Pre Verse

E|----------------------|----------------|
B|----------------------|----------------|
G|-------9p7------------|-------9p7------|  
D|--6h7h9---9/11---9-7--|--6h7h9---9/11--|
A|----------------------|----------------|  
D|----------------------|----------------| 

Clean Guitar:

E|----------------|-----------------------------------|
B|----------------|-----------------------------------|
G|--9----6----7---|-------9-------6-----------7/9\7---|
D|--9----7----7---|-----6---6---5---5-------4---------|
A|--7----4----5---|---7-------0-------0---5-----------|
D|----------------|---------------------0-------------|

E|----------------------------------------------|----------|
B|----------------------------------------------|----------|
G|---9--9-x--13-13-13-x--6--6-x--14-14-14--x--7-|--9---6---|
D|---9--9-x--x--x--x--x--7--7-x--x--x--x---x--7-|--9---7---|
A|---7--7-x--11-11-11-x--4--4-x--12-12-12--x--5-|--7---4---|
D|--------------------------------------------0-|----------|


Play Chorus

Outro:
E|------------|--------------------------------------|
B|------------|---7\--x-x-x-14---14\-----------------|
G|------------|---7\--x-x-x-14---14\---x-x-x---------|
D|--7--9--11--|---7\--x-x-x-14---14\---x-x-x--7-9-11-|
A|--7--9--11--|---5\--x-x-x-0----0-----x-x-x--7-9-11-|
D|--7--9--11--|------------------0------------7-9-11-|

                             (notes not quite right, but close) 
E|-----------------------------------------------------|
B|--------------------------------------------14-15-17-|
G|--------------------------------------13-14----------|
D|--7--9--11--7--9--11----0----12-14-16----------------|
A|--7--9--11--7--9--11----0----------------------------|
D|--7--9--11--7--9--11----0----------------------------|
                          (Let open D ring on under)


E|-----------------------------------|
B|-----------------------------------|
G|-----------------------------------|
D|--7--9--11--9--7--9---0------0-----|
A|--7--9--11--9--7--9---0------0-----|
D|--7--9--11--9--7--9---0------0-----|


E|-----------------------------------------------------------|
B|--------------------------------------------14---16-16-14--|
G|------------------------------------------14--14-14-14-14--|
D|--2--4--6--7--9--11--12--14--16--17--0----14--14-----------|
A|--2--4--6--7--9--11--12--14--16--17--0---------------------|
D|--2--4--6--7--9--11--12--14--16--17--0---------------------|


E|------------------------------------------------------|
B|--------------------------------------------------15--|
G|--------------------------------------------------17b-|
D|--7--9--11--7--9--11----0-----------------------------|
A|--7--9--11--7--9--11----0-----------------------------|
D|--7--9--11--7--9--11----0-----------------------------|


Добавлено: 01.08.2013
Другие материалы по этой песне:
  • Аккорды и текст

Страница создана 23.02.2012
http://primanota.ru/biffy-clyro/a-man-of-his-appalling-posture-chords.htm
Привет, Гость.
Предлагаем пройти революционный курс по гитаре.
Подарок от PrimaNota.Ru, забирай!