PrimaNota.ru - самый крупный в мире бесплатный архив песенных текстов, аккордов, табулатур и нот


Biffy Clyro - A Day Of - аккорды и текст, таба, бас-таба, драм-таба, видео

Регистрация Запомнить меня
Войти через:  Facebook Google Twitter Vk Yandex Mail.ru

Biffy Clyro - A Day Of - аккорды и текст, таба, бас-таба, драм-таба, видео

Печатать
Просмотров: 153
A Day Of
Biffy Clyro
---------------------------------------------------------------------
			Biffy Clyro = A Day of...
---------------------------------------------------------------------

Hey heres the next one in the line(tombuttcrunch116@hotmail.com). This is probly
one of my fave songs on the album.u mite of noticed im doing the songs in order
of how much i like them.lol.newho. Here it is. Have fun

H : harmonic
b : bend
x : mute the string
h : hammer on


Intro (0:03)
         H H H
e|---------------------------------------------------------------
b|---------------------------------------------------------------
g|-----------------------4b(5)-----0----------------0--4--0------
d|---(2)-x-x-x-------------------------------0--4------------4---
a|---(2)-x-x-x---------------------------------------------------
D|---(2)-x-x-x---------------------------------------------------

Verse (0:09)
e|---------------------------------------------------------
b|---------5-7b-------5-7b-------5-7b----------------------
g|---------4-4--------4-4--------4-4---------0--4--0-------
d|---2-2--------2-2--------2-2---------0--4-----------4----(repeat)
a|---2-2--------2-2--------2-2-----------------------------
D|---2-2--------2-2--------2-2-----------------------------

(0:18)
e|---------------------------------------------------------
b|---------5-8b-------5-8b-------5-8b----------------------
g|---------4-4--------4-4--------4-4---------0--4--0-------
d|---2-2--------2-2--------2-2---------0--4-----------4----
a|---2-2--------2-2--------2-2-----------------------------
D|---2-2--------2-2--------2-2-----------------------------

Chorus (0:27)
e|-----------------------------------------------------
b|-----------------------------------------------------
g|---13--13-13-12---14-14-7---4-4-4/5-5-5-54-4-4-4----
d|-----------------------------------------------------
a|---11--11-11-10---12-12-5---2-2-2/3-3-3-32-2-2-2----
D|-----------------------------------------------------

Verse (0:44)
e|---------------------------------------------------------
b|---------5-7b-------5-7b-------5-7b----------------------
g|---------4-4--------4-4--------4-4---------0--4--0-------
d|---2-2--------2-2--------2-2---------0--4-----------4----(repeat)
a|---2-2--------2-2--------2-2-----------------------------
D|---2-2--------2-2--------2-2-----------------------------

e|-----------
b|-----------
g|-----------
d|---x-2-2---
a|---x-2-2---
D|---x-2-2---

e|---------------------------------------------------------
b|---------5-8b-------5-8b-------5-8b----------------------
g|---------4-4--------4-4--------4-4---------0--4--0-------
d|---2-2--------2-2--------2-2---------0--4-----------4----
a|---2-2--------2-2--------2-2-----------------------------
D|---2-2--------2-2--------2-2-----------------------------

Chorus (1:02)
e|-------------------------------------------------------------------
b|-------------------------------------------------------------------
g|-----------------------------------77777777777777774444444455554444
d|---2222222222222222777777777777777777777777777777774444444444444444
a|---2222222222222222777777777777777755555555555555552222222233332222
D|---22222222222222227777777777777777--------------------------------

Post-Chorus (1:20)
e|-----------------------------------------------------------------
b|---/8--8-8-8--87-/8--8-8-8--87-/8--8-8-8--87-/8--8-8-8--87---
g|-----------------------------------------------------------------
d|---/5--5-5-5--54-/5--5-5-5--54-/5--5-5-5--54-/5--5-5-5--54---
a|-----------------------------------------------------------------
D|-----------------------------------------------------------------

e|------------------------------------------------------------------
b|---/8--8-8-8--87-/8--8-8-8--87-/8--8-8-8--87-/10-101010-108---
g|------------------------------------------------------------------
d|---/5--5-5-5--54-/5--5-5-5--54-/5--5-5-5--54-/7--7-7-7--7-5---
a|------------------------------------------------------------------
D|------------------------------------------------------------------

e|----------------------------------------------------------------
b|---3--3-3-3--3-3--3--3-3-3--3-3--3--3-3-3--3-3--3--3-3-3--3-3---
g|----------------------------------------------------------------
d|---1--1-1-1--1-1--1--1-1-1--1-1--1--1-1-1--1-1--1--1-1-1--1-1---
a|----------------------------------------------------------------
D|----------------------------------------------------------------

e|-------------------------------------------------------------------
b|---8-8-8-8-8-8-8-8-8-8-8-8-8-8-8-8-10101010101010101010101010101010
g|-------------------------------------------------------------------
d|---5-5-5-5-5-5-5-5-5-5-5-5-5-5-5-5-7-7-7-7-7-7-7-7-7-7-7-7-7-7-7-7-
a|-------------------------------------------------------------------
D|-------------------------------------------------------------------

Outro (2:09)
e|-------------------------------------------------
b|---------5-7b-------5-7b-------5-7b-------5-7b---
g|---------4-4--------4-4--------4-4--------4-4----
d|---2-2--------2-2--------2-2--------2-2----------(repeat)
a|---2-2--------2-2--------2-2--------2-2----------
D|---2-2--------2-2--------2-2--------2-2----------

e|-------------------------------------------------------------------
b|-------------------------------------------------------------7-----
g|--------------------------------0--4--0--------0----3--4--3--8-----
d|---x-2-2-------x-2-2------0--4-----------4--------4----------------
a|---x-2-2-------x-2-2------------------------4----------------------
D|---x-2-2-------x-2-2-----------------------------------------------

e|-------------
b|---6-6-6h8---
g|---6-6-6h8---
d|-------------
a|-------------
D|-------------


A Day of Drugs and Religion
Добавлено: 19.03.2012
Другие материалы по этой песне:
  • Аккорды и текст

Страница создана 22.02.2012
http://primanota.ru/biffy-clyro/a-day-of-chords.htm
Привет, Гость.
Предлагаем пройти революционный курс по гитаре.
Подарок от PrimaNota.Ru, забирай!