PrimaNota.ru - самый крупный в мире бесплатный архив песенных текстов, аккордов, табулатур и нот


Bif Naked - Let Down - текст песни, таба, видео

Регистрация Запомнить меня
Войти через:  Facebook Google Twitter Vk Yandex Mail.ru

Bif Naked - Let Down - текст песни, таба, видео

Печатать
Просмотров: 241
|             Intro:
|------------------|
|------------------|x2
|------777-----666-|
|-4444x7777777x666-|
|-4444x5557777x444-|
|-2222x---5555x----|

|           Verse 1:
|------------------|
|------------------|x4
|------777-----666-|
|-4-xxx7777-xxx666-|
|-4-xxx5557-xxx444-|
|-2-xxx---5-xxx----|
|
|------------------|
|------------------|x2
|------777-----666-|
|-4444x7777777x666-|
|-4444x5557777x444-|
|-2222x---5555x----|
|
|------------------|------------------|------------------|------------------|
|------------------|------------------|------------------|------------------|x1
|------777---------|------777-----xx6-|------777---------|------777---------|
|-4-xxx7777-xxxx---|-4-xxx7777-xxxxx6-|-4-xxx7777-xxxx---|-4-xxx7777-xxxx---|
|-4-xxx5557-xxxx---|-4-xxx5557-xxxxx4-|-4-xxx5557-xxxx---|-4-xxx5557-xxxx---|
|-2-xxx---5-xxxx---|-2-xxx---5-xxx----|-2-xxx---5-xxxx---|-2-xxx---5-xxxx---|

|            Chorus:
|------------------|
|------------------|x4
|------777-----666-|
|-4444x7777777x666-|
|-4444x5557777x444-|
|-2222x---5555x----|

|       Post-Chorus:
|------------------|------------------|
|------------------|------------------|x1
|-----777-----666--|-----777-----6-6-6|
|-444-777-777-666--|-444-777-777-6-6-6|
|-444-555-777-444--|-444-555-777-4-4-4|
|-222-----555------|-222-----555------|
PM..  ..  ..  ..     ..  ..  ..  . . .

|                                                                    Verse 2:
|------------------|------------------|------------------|------------------|
|------------------|------------------|------------------|------------------|x1
|------777---------|------777---------|------------------|------------------|
|---xxx7777-xxxxxx-|-4-xxx7777-xx-----|-44------77-------|-44------7--------|
|---xxx5557-xxxxxx-|-4-xxx5557-xx-----|-44------77-------|-44------7--------|
|---xxx---5-xxxxxx-|-2-xxx---5-xx-----|-22------55-------|-22------5--------|

|            Chorus:
|------------------|
|------------------|x4
|------777-----666-|
|-4444x7777777x666-|
|-4444x5557777x444-|
|-2222x---5555x----|

|                             Post-Chorus:
|------------------|--|------------------|
|------------------|x3|------------------|x1
|-----777-----666--|--|-----77------66---|
|-444-777-777-666--|--|-44--77--77--66---|
|-444-555-777-444--|--|-44--55--77--44---|
|-222-----555------|--|-22------55-------|
PM..  ..  ..  ..

|                                                        Bridge (No Distortion):
|------------------|-------------------|-------------------|-------------------|
|------------------|-------------------|-------------------|-------------------|x1
|------------------|-------------------|-------------------|-77--77--77--799---|
|------------------|---------------2-2-|-------------------|-77--77--77--799---|
|-22------44-------|-55------------2-2-|-22-------44-------|-55--55--55--577---|
|------------------|----------5~---0-0-|-------------------|-------------------|

|Rhythm During Solo:
|------------------|
|------------------|x4
|------777-----666-|
|-4444x7777777x666-|
|-4444x5557777x444-|
|-2222x---5555x----|

|        Last Verse:
|------------------|--|------------------|------------------|
|------------------|x2|------------------|------------------|
|------777-----666-|--|------------------|------------------|
|-4-xxx7777-xxx666-|--|-4----------------|------------------|
|-4-xxx5557-xxx444-|--|-4----------------|------------------|
|-2-xxx---5-xxx----|--|-2----------------|------------------|
|
|------------------|------------------|
|------------------|------------------|
|------777-----666-|------777---------|
|-4----7777----666-|-4----7777--------|
|-4----5557----444-|-4----5557--------|
|-2-------5--------|-2-------5--------|

|            Chorus:
|------------------|
|------------------|x4
|------777-----666-|
|-4444x7777777x666-|
|-4444x5557777x444-|
|-2222x---5555x----|

| Outro:
|------------------|--|------------------|
|------------------|x3|------------------|x1
|-----777-----666--|--|-----77------66---|
|-444-777-777-666--|--|-44--77--77--66---|
|-444-555-777-444--|--|-44--55--77--44---|
|-222-----555------|--|-22------55-------|
PM..  ..  ..  ..
Добавлено: 25.07.2012
Другие материалы по этой песне:
  • Аккорды и текст

Страница создана 18.05.2012
http://primanota.ru/bif-naked/let-down-chords.htm
Привет, Гость.
Предлагаем пройти революционный курс по гитаре.
Подарок от PrimaNota.Ru, забирай!