PrimaNota.ru - самый крупный в мире бесплатный архив песенных текстов, аккордов, табулатур и нот


Bicycle Thief - Stoned Aspirations - аккорды и текст, видео

Регистрация Запомнить меня
Войти через:  Facebook Google Twitter Vk Yandex Mail.ru

Bicycle Thief - Stoned Aspirations - аккорды и текст, видео

Печатать
Просмотров: 141
Stoned Aspirations
Bicycle Thief
 B           E         G         A         D

e|-----|    |--0--|   |--3--|   |-----|    |--2--|
b|--4--|    |--0--|   |--3--|   |--2--|    |--3--|
g|--4--|    |--1--|   |--4--|   |--2--|    |--2--|
d|--4--|    |--2--|   |--5--|   |--2--|    |--0--|
a|--2--|    |--2--|   |--5--|   |--0--|    |--0--|
e|-----|    |--0--|   |--3--|   |-----|    |-----|




            B
I've got a 12 year old boy
                        E
And he's he is always bored
     B
And so are all his friends
          E
And so am I
       B
The schools don't teach you nothin'
         E
You'll ever need to know
    B                    E
So why even go Why even try

             B
We're going down
               G
And it don't matter what you've heard
             B
We're going down
            G
It don't matter what you want
             B                 E
We're going down


B
Science took our religion
     E
And women wanna be men
B
Money is all that matters
       E
Yeah money is all there is
    B
And I just can't stop thinking
       E
Rome fell from within
          B
And in a love affair with violence
                    E
Better build more jails

             B
We're going down
              G
And it don't matter what you've heard
             B
We're going down
           G
It don't matter what you think

             B       A              D                 A
We're going down.. So let's get stoned And watch TV
                  B    A               D                  A
Let's just get stoned.  So let's get stoned And watch TV
                 B      A             D                 A
Let's just get stoned. So let's get stoned And watch TV
                B     A              D                 A
Let's just get stoned. So let's get stoned And watch TV
                 B                E
Let's just get stoned


       B
There are no simple answers
      E
To these kinds of questions
B                             E
Why does luxury pull us apart
               B
Why does the apathy keep growing
           E
from the bottom to the top
     B
Hey just 'cause you don't care
                                   E
don't mean/ (well) you're not to blame


            B
We're going down
              G
And it don't matter what you've heard
             B
We're going down
           G
It don't matter what you think
             B
We're going down
              G
And it dont matter what you want


             B     A              D                 A
We're going down, So let's get stoned And watch TV
                  B    A               D                  A
Well let's just get stoned.  Let's get stoned And watch TV
                 B      A             D                 A
Let's just get stoned. you feel bout you i think about me
                B     A              D                 A
we'll just get stoned.   Let's get stoned And watch TV
                 B
well, let's just get stoned


BRIDGE:
B/   G

SOLO:

e|---s-7---------s-10---9------5--------7-----7-----5-|
b|-------7----7-------7---7-7----3-3--3---5-5---5-5---|
g|---------7------------------------------------------|
d|----------------------------------------------------|
a|----------------------------------------------------|
e|----------------------------------------------------|

e|------7-7---s-10---9------5--------7----7-----|
b|--s-5-----5------7---7-7----3-3--3---5-5--5-5-|
g|----------------------------------------------|
d|----------------------------------------------|
a|----------------------------------------------|
e|----------------------------------------------|


e|------7-7---s-10---9--------7---------10---9---7--------s-19---|
b|--s-5-----5------7---7---7----7----7-----7---7---7---7---------|
g|-----------------------7--------7------------------7-----------|
d|---------------------------------------------------------------|
a|---------------------------------------------------------------|
e|---------------------------------------------------------------|



B        A                 D                 A
               So let's get stoned And watch TV
                      B      A               D                A
Well let's just get stoned.    Let's get stoned And watch TV
                 B      A             D                 A
Let's just get stoned. you feel bout you i think about me
                B     A              D                 A
we'll just get stoned.   Let's get stoned And watch TV
                 B
well, let's just get stoned
Добавлено: 06.07.2012
Другие материалы по этой песне:
  • Аккорды и текст

Страница создана 06.07.2012
http://primanota.ru/bicycle-thief/stoned-aspirations-chords.htm
Привет, Гость.
Предлагаем пройти революционный курс по гитаре.
Подарок от PrimaNota.Ru, забирай!