PrimaNota.ru - самый крупный в мире бесплатный архив песенных текстов, аккордов, табулатур и нот


Bicycle Thief - Hurt - текст песни, таба, видео

Регистрация Запомнить меня
Войти через:  Facebook Google Twitter Vk Yandex Mail.ru

Bicycle Thief - Hurt - текст песни, таба, видео

Печатать
Просмотров: 168
Quite difficult to tab this. This is as close as I could get. Sorry for any mistakes.

e|------0------------------------------0--------------------------0-----------|
b|------0------------------------------0--------------------------0-----------|
g|--------------0-0-0-0--------------------0-0-0-0--------------------0-0-0-0-|
d|--2---------s-4-4-5-4--0-2-0-2-----2---s-4-4-5-4--0-2-0-2-----2---s-4-4-5-4-|
a|--2---------s-5--------0-2-0-2-----2---s-5--------0-2-0-2-----2---s-5-------|
e|--0-0---0-0------------0-0-0-0-0-0-0--------------0-0-0-0-0-0-0-------------|

e|---------------0--0--------------------|
b|---------------0--0--------------------|
g|---------------11-----0-0-0-0----------|
d|--0-2-0-2-----------s-4-4-5-4--0-2-0-2-|
a|--0-2-0-2-----------s-5--------0-2-0-2-|
e|--0-0-0-0-0-0------------------0-0-0-0-|



em
Well...you can't hurt me
em
'cause I'm un-hurtable
em
and you can't scare me
em
'cause I'm un-shakable
em
and you can't touch me
em
'cause I'm un-reachable
em
and you can't get me
em
'cause I'm un-forgettable
am                                     em
I've decided I'm not going through it again
am                                             em
yeah I made my mind up I'm not gunna to do it again


em
Well...I've done things
em
that are unforgivable
em
I've made mistakes
em
that are irreversible
em
So please don't give it
em
'cause I can't take it
em
I've made my bed now
em
I'm gonna lay in it
      am                                    em
yeah I've decided I'm not going through it again
   am                                   em
I made my mind up I'm not gunna do it again


/EM/  (SOLO'S)


em
Well love and happiness
    em
are inconceivable
   em
So don't love me
em
'cause I'm unlovable
em
and don't tease me
em
'cause I'm un-temptable
em
and you can't be with me
em
'cause I'm un-be-withable
am                                      em
I've decided I'm not going through it again
    am                                    em
I made my mind up I'm not gunna to do it again...
am                                      em
I've decided I'm not going through it again, NO
    am                                    em
I made my mind up I'm not gunna to do it again...


/EM/ (SOLO'S)
Добавлено: 04.06.2012
Другие материалы по этой песне:
  • Аккорды и текст

Страница создана 07.03.2012
http://primanota.ru/bicycle-thief/hurt-chords.htm
Привет, Гость.
Предлагаем пройти революционный курс по гитаре.
Подарок от PrimaNota.Ru, забирай!