PrimaNota.ru - самый крупный в мире бесплатный архив песенных текстов, аккордов, табулатур и нот


Bibio - Over The Far And Hills Away - таба, видео

Регистрация Запомнить меня
Войти через:  Facebook Google Twitter Vk Yandex Mail.ru

Bibio - Over The Far And Hills Away - таба, видео

Печатать
Просмотров: 106
From Vignetting the Compost 2009

Tune down a full step to D standard

e|----9-----9-----7-----7-----10----10----9-----9-----5-----5---------------2---2---2---2--|
B|--11----11----11----11----12---12-----9-----9-----7-----7-------7----7--2---2---2---2----|
G|--------------------------------------------------------------6----8---------------------|
D|-----------------------------------------------------------------------------------------|
A|--9---9-9-----9---9-9-----------------7---7-7-----5---5-5--------------------------------|
E|--------------------------10--10-10---------------------------5----7----2---2---2---2----| x2


e|----5-----5-----------------4-----4-----------------5-----5---------------------------2--|
B|--7-----7-------7-6---7---5-----5-------7-----7---7-----7-------7-----7-----5-----5---2--|
G|--------------7-----7---5-------------6-----6-----------------7-----7-----6-----6-----3--|
D|--------------------------------------------------------------------------------------4--|
A|--5---5-5-----------------4---4-4-----------------5---5-5-----------------------------4--|
E|--------------7---7-7-----------------5---5-5-----------------7---7-7-----3---3-3-----2--|

e|----2-----2-----0-----0-----5-----5-----5-----5-----3-----3-----0-----0-----2---2---2---2|
B|--4-----4-----4-----4-----7-----7-----4-----4-----5-----5-----2-----2-----2---2---2---2--|
G|-----------------------------------------------------------------------------------------|
D|-----------------------------------------------------------------------------------------|
A|--2---2-2-----2---2-2-----0---0-0-----0---0-0--------------------------------------------|
E|--------------------------------------------------3---3-3-----0---0-0-----2---2---2---2--|

e|----2-----2-----0-----0-----5-----5-----5-----5-----1-----1-----0-----0---2-----------14-|
B|--4-----4-----4-----4-----7-----7-----5-----5-----3-----3-----2-----2-----2--------------|
G|--------------------------------------------------------------------------3--------------|
D|--------------------------------------------------------------------------4--------------|
A|--2---2-2-----2---2-2-----0---0-0-----0---0-0-----------------------------4--------------|
E|--------------------------------------------------1---1-1-----0---0-0-----2--------------|
Добавлено: 28.07.2013
Другие материалы по этой песне:
  • Аккорды и текст

Страница создана 28.07.2013
http://primanota.ru/bibio/over-the-far-and-hills-away-chords.htm
Привет, Гость.
Предлагаем пройти революционный курс по гитаре.
Подарок от PrimaNota.Ru, забирай!