PrimaNota.ru - самый крупный в мире бесплатный архив песенных текстов, аккордов, табулатур и нот


Bibio - Jealous Of Roses - бас-таба, видео

Регистрация Запомнить меня
Войти через:  Facebook Google Twitter Vk Yandex Mail.ru

Bibio - Jealous Of Roses - бас-таба, видео

Печатать
Просмотров: 123
Уроки эстрадного вокала в Санкт-Петербурге
Авторы музыки: Stephen James Wilkinson
Авторы текста: Stephen James Wilkinson
-------------------------------------------------------------------------------
                             Jealous of Roses - Bibio
-------------------------------------------------------------------------------
Tabbed by: Ephraim Bell
E-mail: theoneand2thirds@aol.com

Tuning: E Standard
Timing: 4/4, 108 BPM

For the Into and Verse 1, each tick represents a 16th note.

Intro

G|--------------------------------------------------------------------|
D|--------------------------------------------------------------------|
A|8-8-8-8-8-8--8\--4-4-4-4-4-4--4\--1-1-1-1-1-1--1/--3-3-3-3-3-3--3/--| to Verse 1
E|--------------------------------------------------------------------|

Verse 1, Variation 1                      Verse 1, Variation 2

G|------------------------------------|   G|----------------------------------|
D|--------------------------------8p6-|   D|-------------6p5--------------8p6-|
A|8-8-8-8-8-8--11p10------------------|   A|8-8---8-8-8------4-4-4---4-4------|
E|-------------------9-9-9-9-9-9------|   E|----8------------------4----------|

Verse 1, Variation 3                      Verse 1, Turnaround

G|------------------------------------|   G|---------------------------------|--  |
D|--------------------------------8p6-|   D|---------------------------------|(6/)| -- First ending
A|8-8---8---8--11p10------------------|   A|---------------------------------|--  |
E|-------------------9-9---9---9------|   E|6-6-6-6-6-6--6/--8-8-8-8-8-8--8--|(8) | -- Second ending

Verse 1 is made up of 7 variations and a Turnaround, all of which is repeated once.
Feel free to play whichever variations you wish or improvise your own.
If you wish to follow the original, the order is:
Into, 1, 2, 1, 2, 3, 2, 2, Turnaround with 1st ending,
1st half of 1 + 2nd half of 2, 1st half of 3 + 2nd half of 2, 2, 2, 1, 2, 2, Turnaround with 2nd 
ending

Then break for 5 bars

For Verse 2, each tick represents a 32nd note

Verse 2

G|----------------------------------------------------------13---11------|
D|------------------------------------------------------------------11---|
A|8----8-----8-----8------8-10-11---10-----------------------------------|
E|----------------------------------------9------9-----9-----------------|

G|--------------------------------------------------------------------------|
D|----------------------------------------------------8---------8------8----|
A|--------------------------------------------------------------------------|
E|11-----11-----11-----11-----11-13-14---13------6-----------6-------6------|

G|------------------------14-12----------------------------7-------|
D|------------------------------12---0-----0-----0----0--------0---|
A|9-----9----9-----9---------------------------0-------------------|
E|-----------------------------------------------------------------|

G|------------------------6------------------------------------------|
D|------------------------------------------------------------10-----|
A|x-4-----4---x-4----4--------4---------------------------8------8---|
E|--------------------------------x-6-----6---x-6-----6--------------|

G|---------------------------------------------------------13---11-----|
D|---------------------------------------------------------------11----|
A|8-----8-----8-8---8---8---10-11---10---------------------------------|
E|----------------------------------------9------9-----9---------------|

G|-----------------------------------------------------------------------|
D|---------------------------------------------------------8-------8-----|
A|-----------------------------------------------------------------------|
E|11-----11-----x-11---11---11---13-14---13-----6----6---------6-----6---|

G|--------------------------------------------------------------------|
D|----------------------------------------------------11/13----11-----|
A|9-----9----9-9--9---9---11-9---8-----8--------------------------11--|
E|-------------------------------------------9----9-------------------|

G|-------------------------------------------------------------------|
D|------------------------------------------------------------10-----|
A|----------------------------------------------------------8----8---|
E|8-----8----8-----8------8-10-11---6-----6-----6----6---------------|

G|--------------------------------------------------------13---11-------|
D|----------------------------------------------------------------11----|
A|8-----8-----8-8---8---8---10-11---10----------------------------------|
E|-----------------------------------------9----9-----9-----------------|

G|------------------------------------------------------------------------|
D|---------------------------------------------------------8-----8--------|
A|------------------------------------------------------------------------|
E|11-----11-----x-11---11---11---13-14---13-----6----6---------6------6---|

G|--------------------------------------------------------------------|
D|----------------------------------------------------------12--------|
A|9-----9-----9-9---9-------9-----------------------------------------|
E|----------------------9---------10-----10---x-10-----10--------10---|


G|------------------------------------------------------|
D|-----------------11-------11--------------------------|
A|--------------11--------------------------------------|
E|X-9-----9---9---------9--------9-----6-----6-----6----|

| /  slide up
| \  slide down
| h  hammer-on
| p  pull-off
| x  Fret-hand mute
===============================================================================
Добавлено: 12.08.2015
Другие материалы по этой песне:
  • Аккорды и текст

Страница создана 12.08.2015
http://primanota.ru/bibio/jealous-of-roses-chords.htm
Привет, Гость.
Предлагаем пройти революционный курс по гитаре.
Подарок от PrimaNota.Ru, забирай!