PrimaNota.ru - самый крупный в мире бесплатный архив песенных текстов, аккордов, табулатур и нот


Beyond - The Great Wall - таба, видео

Регистрация Запомнить меня
Войти через:  Facebook Google Twitter Vk Yandex Mail.ru

Beyond - The Great Wall - таба, видео

Печатать
Просмотров: 118
Уроки эстрадного вокала в Санкт-Петербурге
-------------------------------------------------------------------------------
                          The Great Wall - Beyond
-------------------------------------------------------------------------------
Tabbed by: JustinK969
Email: hirokitkichiro@gmail
Title: The Great Wall
SubTitle: 長城
Artist: Beyond
Album: 繼續革命
Tempo = 80
Tuning: E Standard

This is only the first guitar part. You will find the solo beneath the main guitar part.
Below that is the opening riff transcribed for acoustic guitar.

I have the bass, drums, and all keyboard parts as well in GP5 and GPX format.
For some reason my submission was rejected despite the pre-existing tab being
very inaccurate (I mean, just listen to it). If you want the GP, feel free to message.


e |-------||------|-------|-------|-------|-------|------||-------|-------|
B |-------||------|-------|-------|-------|-------|------||-------|-------|
G |-------||o-----|-------|-------|-------|-------|-----o||-------|-------|
D |-------||o-----|-------|-------|-------|-------|-----o||-------|-------|
A |-------||------|-------|-------|-------|-------|------||-------|-------|
E |-------||------|-------|-------|-------|-------|------||-------|-------|


-------|-------|-------|----------------------------|-------|
-------|-------|-------|----------------------------|-------|
-------|-------|-------|-----------------------7L---|--7----|
-------|-------|-------|--7--------7--5--------7L---|--7----|
-------|-------|-------|--7--------7--5--------5L---|--5----|
-------|-------|-------|--5--------5--3-------------|-------|


----------------------------------------------------|
----------------------------------------------------|
--------------5~----------------------7~------------|
--------------5-----------------------7-------------|
--0x----0x-0x-------------0x-0L-0x-0x---------------|
----------------------------------------------------|


----------------------------------------------------|
----------------------------------------------------|
--------------5~------------------------------------|
--------------5-----------------------5h-4----------|
--0x----0x-0x-------------0x-0L-0x-0x-------5L-5----|
-----------------------------------------------5----|


----------------------------------------------------|
----------------------------------------------------|
--------------5~----------------------7~------------|
--------------5-----------------------7-------------|
--0x----0x-0x-------------0x-0L-0x-0x---------------|
----------------------------------------------------|


----------------------------------------------------|
----------------------------------------------------|
--------------5~------------------------------------|
--------------5-----------------------5h-4----------|
--0x----0x-0x-------------0x-0L-0x-0x-------5L-5----|
-----------------------------------------------5----|


----------------------------|----------------------------|
----------------------------|----------------------------|
-----------5----------------|--------7s-9----------------|
--------7-----9~------------|-----9--------7~------------|
--x--7----------------------|--10s-----------------------|
----------------------------|----------------------------|


----------------------------|----------------------------|-------|-------|
----------------------------|----------------------------|-------|-------|
-----------5----------------|--------7s-9--9-------------|-------|-------|
--------7-----9~------------|-----9----------------------|-------|-------|
--x--7----------------------|--10s-----------------------|-------|-------|
----------------------------|----------------------------|-------|-------|


----------------------------------------------------|
----------------------------------------------------|
--------------5~----------------------7~------------|
--------------5-----------------------7-------------|
--0x----0x-0x-------------0x-0L-0x-0x---------------|
----------------------------------------------------|


----------------------------------------------------|
----------------------------------------------------|
--------------5~------------------------------------|
--------------5-----------------------5h-4----------|
--0x----0x-0x-------------0x-0L-0x-0x-------5L-5----|
-----------------------------------------------5----|


----------------------------------------------------|
----------------------------------------------------|
--------------5~----------------------7~------------|
--------------5-----------------------7-------------|
--0x----0x-0x-------------0x-0L-0x-0x---------------|
----------------------------------------------------|


----------------------------------------------------|
----------------------------------------------------|
--------------5~------------------------------------|
--------------5-----------------------5h-4----------|
--0x----0x-0x-------------0x-0L-0x-0x-------5L-5----|
-----------------------------------------------5----|

Acoustic plays these chords:

F             G             |  E            A
----------------------------|----------------------------|
----------------------------|----------------------------|
-----------5----------------|--------7s-9----------------|
--------7-----9~------------|-----9--------7~------------|
--x--7----------------------|--10s-----------------------|
----------------------------|----------------------------|

F             G             | Esus4         E

----------------------------|----------------------------|----------------|
----------------------------|----------------------------|----------------|
-----------5----------------|--------7s-9--9-------------|--1-------------|
--------7-----9~------------|-----9----------------------|--2-------------|
--x--7----------------------|--10s-----------------------|--2--------12s--|
----------------------------|----------------------------|--0--------12s--|


----------------------------------------------------|
----------------------------------------------------|
----------------------------------------------------|
----------------------------------------------------|
--7x-7x----7x-7-----------3x-3x----3x-3-------------|
--5x-5x----5x-5-----------1x-1x----1x-1-------------|


----------------------------------------------------|
----------------------------------------------------|
----------------------------------------------------|
--7x----7x-7x-7-------------------------------------|
--5x----5x-5x-5-----------5x-5x----5x-5-------------|
--------------------------3x-3x----3x-3-------------|


----------------------------|
----------------------------|
----------------------------|
-----5----------------------|
--3-----2-------------------|
--------------5~------------|


----------------------------------------------------|
----------------------------------------------------|
----------------------------------------------------|
--------------3-------------------------------------|
--3-----------3-----------5x-5x----5x-5-------------|
--1-----------1-----------3x-3x----3x-3-------------|


----------------------------------------------------|
----------------------------------------------------|
----------------------------------------------------|
----------------------------------------------------|
--7x-7x----7x-7-----------3x-3x----3x-3-------------|
--5x-5x----5x-5-----------1x-1x----1x-1-------------|


----------------------------------------------------|
----------------------------------------------------|
----------------------------------------------------|
--7x----7x-7x-7-------------------------------------|
--5x----5x-5x-5-----------5x-5x----5x-5-------------|
--------------------------3x-3x----3x-3-------------|


----------------------------|
----------------------------|
----------------------------|
-----5----------------------|
--3-----2-------------------|
--------------5~------------|


----------------------------------------------------|----------|
----------------------------------------------------|----------|
----------------------------------------------------|--2--1----|
--------------3-------------------------------------|--2--2----|
--3-----------3-----------5x-5x----5x-5-------------|--2--2----|
--1-----------1-----------3x-3x----3x-3-------------|--0--0----|


----------------------------|-------|----------------------------|-------|
----------------------------|-------|----------------------------|-------|
-----------------------7L---|--7----|-----------------------7L---|--7----|
--7--------7--5--------7L---|--7----|--7--------7--5--------7L---|--7----|
--7--------7--5--------5L---|--5----|--7--------7--5--------5L---|--5----|
--5--------5--3-------------|-------|--5--------5--3-------------|-------|


----------------------------------------------------|
----------------------------------------------------|
--------------5~----------------------7~------------|
--------------5-----------------------7-------------|
--0x----0x-0x-------------0x-0L-0x-0x---------------|
----------------------------------------------------|


----------------------------------------------------|
----------------------------------------------------|
--------------5~------------------------------------|
--------------5-----------------------5h-4----------|
--0x----0x-0x-------------0x-0L-0x-0x-------5L-5----|
-----------------------------------------------5----|


----------------------------------------------------|
----------------------------------------------------|
--------------5~----------------------7~------------|
--------------5-----------------------7-------------|
--0x----0x-0x-------------0x-0L-0x-0x---------------|
----------------------------------------------------|


----------------------------------------------------|
----------------------------------------------------|
--------------5~------------------------------------|
--------------5-----------------------5h-4----------|
--0x----0x-0x-------------0x-0L-0x-0x-------5L-5----|
-----------------------------------------------5----|


----------------------------|----------------------------|
----------------------------|----------------------------|
-----------5----------------|--------7s-9----------------|
--------7-----9~------------|-----9--------7~------------|
--x--7----------------------|--10s-----------------------|
----------------------------|----------------------------|


----------------------------|----------------------------|----------------|
----------------------------|----------------------------|----------------|
-----------5----------------|--------7s-9--9-------------|--1-------------|
--------7-----9~------------|-----9----------------------|--2-------------|
--x--7----------------------|--10s-----------------------|--2--------12s--|
----------------------------|----------------------------|--0--------12s--|


----------------------------------------------------|
----------------------------------------------------|
----------------------------------------------------|
----------------------------------------------------|
--7x-7x----7x-7-----------3x-3x----3x-3-------------|
--5x-5x----5x-5-----------1x-1x----1x-1-------------|


----------------------------------------------------|
----------------------------------------------------|
----------------------------------------------------|
--7x----7x-7x-7-------------------------------------|
--5x----5x-5x-5-----------5x-5x----5x-5-------------|
--------------------------3x-3x----3x-3-------------|


----------------------------|
----------------------------|
----------------------------|
-----5----------------------|
--3-----2-------------------|
--------------5~------------|


----------------------------------------------------|
----------------------------------------------------|
----------------------------------------------------|
--------------3-------------------------------------|
--3-----------3-----------5x-5x----5x-5-------------|
--1-----------1-----------3x-3x----3x-3-------------|


----------------------------------------------------|
----------------------------------------------------|
----------------------------------------------------|
----------------------------------------------------|
--7x-7x----7x-7-----------3x-3x----3x-3-------------|
--5x-5x----5x-5-----------1x-1x----1x-1-------------|


----------------------------------------------------|
----------------------------------------------------|
----------------------------------------------------|
--7x----7x-7x-7-------------------------------------|
--5x----5x-5x-5-----------5x-5x----5x-5-------------|
--------------------------3x-3x----3x-3-------------|


----------------------------|
----------------------------|
----------------------------|
-----5----------------------|
--3-----2-------------------|
--------------5~------------|


----------------------------------------------------|----------|
----------------------------------------------------|----------|
----------------------------------------------------|--2--1----|
--------------3-------------------------------------|--2--2----|
--3-----------3-----------5x-5x----5x-5-------------|--2--2----|
--1-----------1-----------3x-3x----3x-3-------------|--0--0----|


----------------------------|-------|----------------------------|-------|
----------------------------|-------|----------------------------|-------|
-----------------------7L---|--7----|-----------------------7L---|--7----|
--7--------7--5--------7L---|--7----|--7--------7--5--------7L---|--7----|
--7--------7--5--------5L---|--5----|--7--------7--5--------5L---|--5----|
--5--------5--3-------------|-------|--5--------5--3-------------|-------|


-------|-------|----------------|
-------|-------|----------------|
-------|-------|----------------|
-------|-------|----------------|
-------|-------|-----------12s--|
-------|-------|-----------12s--|


----------------------------------------------------|-------|
----------------------------------------------------|-------|
--------------------7--10-9~------------------------|-------|
--------------6--9----------------------------------|-------|
--------5--8----------------------------------------|-------|
--4x-7x---------------------------------------------|-------|


----------------------------------------------------|
----------------------------------------------------|
----------------------------------------------------|
----------------------------------------------------|
--7x-7x----7x-7-----------3x-3x----3x-3-------------|
--5x-5x----5x-5-----------1x-1x----1x-1-------------|


----------------------------------------------------|
----------------------------------------------------|
----------------------------------------------------|
--7x----7x-7x-7-------------------------------------|
--5x----5x-5x-5-----------5x-5x----5x-5-------------|
--------------------------3x-3x----3x-3-------------|


----------------------------|
----------------------------|
----------------------------|
-----5----------------------|
--3-----2-------------------|
--------------5~------------|


----------------------------------------------------|
----------------------------------------------------|
----------------------------------------------------|
--------------3-------------------------------------|
--3-----------3-----------5x-5x----5x-5-------------|
--1-----------1-----------3x-3x----3x-3-------------|


----------------------------------------------------|
----------------------------------------------------|
----------------------------------------------------|
----------------------------------------------------|
--7x-7x----7x-7-----------3x-3x----3x-3-------------|
--5x-5x----5x-5-----------1x-1x----1x-1-------------|


----------------------------------------------------|
----------------------------------------------------|
----------------------------------------------------|
--7x----7x-7x-7-------------------------------------|
--5x----5x-5x-5-----------5x-5x----5x-5-------------|
--------------------------3x-3x----3x-3-------------|


----------------------------|
----------------------------|
----------------------------|
-----5----------------------|
--3-----2-------------------|
--------------5~------------|


----------------------------------------------------|----------|
----------------------------------------------------|----------|
----------------------------------------------------|--2--1----|
--------------3-------------------------------------|--2--2----|
--3-----------3-----------5x-5x----5x-5-------------|--2--2----|
--1-----------1-----------3x-3x----3x-3-------------|--0--0----|


----------------------------------------------------|-------|-------|-------|
----------------------------------------------------|-------|-------|-------|
--------------------------------------------7--5L---|--5----|-------|-------|
-----------------------------------------7----------|-------|-------|-------|
----------------------------------------------------|-------|-------|-------|
----------------------------------------------------|-------|-------|-------|


----------------------------|-------|-------||
----------------------------|-------|-------||
-----------------------7L---|--7----|-------||
--7--------7--5--------7L---|--7----|-------||
--7--------7--5--------5L---|--5----|-------||
--5--------5--3-------------|-------|-------||


SOLO GUITAR

e|----------------------------------------|
B|----------------------------------------|
G|--7b----------------7~-------7b-7b-7b---|
D|--x-------------------------------------|
A|----------------------------------------|
E|----------------------------------------|


----------------------------------------------------|
----------------------------------------------------|
--7b-5--7-----5-------------------------------------|
-----------7-----7--6--5----------------------------|
--------------------------7L----------------7s------|
----------------------------------------------------|


--------------------------15------------------------|
--------12-13-------12-13----13-12-13---------------|
--14b---------14b---------------------14~-----------|
----------------------------------------------------|
----------------------------------------------------|
----------------------------------------------------|


--------------------------------------------------------12-------13-------16~---|
--------------------9h----8h----9-----13h---12h---13----------------------------|
--9h----8h----9-----------------------------------------------------------------|
--------------------------------------------------------------------------------|
--------------------------------------------------------------------------------|
--------------------------------------------------------------------------------|

                                                                       w
--------------------------------------------------------------------|-------|
--------------------------------------------------------------------|-------|
--------------------------------------------------------------------|-------|
--------------------------------------------------------------------|-------|
--------------------------------------------------------------------|-------|
--------------------------------------------------------------------|--0----|


-------|-------|--------------------------------7--8--------7--8----|----------|
-------|-------|--------------------------10b---------10b-----------|--10~-----|
-------|-------|----------------------------------------------------|----------|
-------|-------|----------------------------------------------------|----------|
-------|-------|----------------------------------------------------|----------|
-------|-------|----------------------------------------------------|----------|


----------------------------|-------|
----------------------------|-------|
-----------------7L-7~------|-------|
----------------------------|-------|
----------------------------|-------|
----------------------------|-------|


--------------------------------------------------------------------------------|
--------------------------------------------------------------------------------|
--------------------------------------------------------------------------5b----|
--------------------------------------------------------------------x--x--------|
--------------------------------------------------------------------x--x--------|
--------------------------------------------------------------------------------|


--------------------|----------|
--------------------|----------|
--------------------|----------|
------7-----5-------|--7~------|
--------------------|----------|
--------------------|----------|


--------------------------------12-14-16~-----------|-------|-------|-------|
----------------------------------------------------|-------|-------|-------|
----------------------------------------------------|-------|-------|-------|
----------------------------------------------------|-------|-------|-------|
----------------------------------------------------|-------|-------|-------|
----------------------------------------------------|-------|-------|-------|


OPENING

e|--------------------------------------------------------------------------------|
B|--------------------5-----8h----7h-5--------5-----------------------7-----------|
G|--------------7-----------------------7-----------------------7-----------5-----|
D|--------7-----------------------------------------------7-----------------------|
A|--0-----------------------------------------------0-----------------------------|
E|--------------------------------------------------------------------------------|


--------------------|
--------------------|
--------------------|
--------------------|
--------------------|
--------------------|

--------------------------------------------------------------------------5-----|
--------------------5-----8h----7h-5--------5-----------------------5-----------|
--------------7-----------------------7-----------------------7-----------------|
--------7-----------------------------------------------7-----------------------|
--0-----------------------------------------------0-----------------------------|
--------------------------------------------------------------------------------|


--------------------|
--------------------|
--------------------|
--------------------|
--------------------|
--------------------|


--------------------------------------------------------------------------------|
--------------------5-----8h----7h-5--------5-----------------------7-----------|
--------------7-----------------------7-----------------------7-----------5-----|
--------7-----------------------------------------------7-----------------------|
--0-----------------------------------------------0-----------------------------|
--------------------------------------------------------------------------------|


--------------------|----------------------------------------------------|
--------------------|--------------------5-----8h----7h-5--------5-------|
--------------------|--------------7-----------------------7-------------|
--------------------|--------7-------------------------------------------|
--------------------|--0-------------------------------------------------|
--------------------|----------------------------------------------------|




Legend
L - tied note
x - dead note
h - hammer on/pull off
b - bend
s - slide
~ - vibrato
g - ghost note
> - accentuated note
t - trill
M - palm mute
. - staccato
P - popping (bass)
S - slapping (bass)
+ - tapping
W - wide vibrato
< - fade in
w - whammy bar
= - tremolo picking
v - brush up
^ - brush down
V - pick stroke up
n - pick stroke down
Добавлено: 16.11.2013
Другие материалы по этой песне:

Страница создана 01.03.2012
http://primanota.ru/beyond/the-great-wall-chords.htm
Привет, Гость.
Предлагаем пройти революционный курс по гитаре.
Подарок от PrimaNota.Ru, забирай!