PrimaNota.ru - самый крупный в мире бесплатный архив песенных текстов, аккордов, табулатур и нот


Beyond - Gray Trail - бас-таба, видео

Регистрация Запомнить меня
Войти через:  Facebook Google Twitter Vk Yandex Mail.ru

Beyond - Gray Trail - бас-таба, видео

Печатать
Просмотров: 114
Уроки эстрадного вокала в Санкт-Петербурге
-------------------------------------------------------------------------------
			     GRAY TRAIL - Beyond
-------------------------------------------------------------------------------
Tabbed by: Junkyard Stalker
E-mail: junkyardstalker@hotmail.com

Tuning: Standard EADG

Intro
Rest 4 bars

Verse 1
   H     Q.  E   W            W            W
G|-------------|------------|------------|------------|
D|-------------|------------|------------|------------| x2
A|-------------|------------|------------|------------|
E|-2----(2)-/4-|-5----------|-0----------|-2----------|

Pre-chorus
   W             H    E.E.E   W            H    S S S E  S S S
G|-------------|------------|------------|---------------------|
D|-------------|------------|------------|---------------------|
A|-2-----------|------------|-2----------|-4----4------------4-|
E|-------------|-2----2-4-5-|------------|--------2-4-5--4-5---|

Chorus 1
   H     H       Q  Q  Q  S S S S   H     H      H     S E  E  S S S
G|-------------|------------------|------------|---------------------|
D|-------------|------------------|------------|-4-----4-4--4--------|
A|-5-----7-----|----------------4-|-5-----7----|-------------------4-|
E|-------------|-5--4--2--2-4-5---|------------|---------------2-4---|

   H     H       Q  Q  Q.    E    H     H      W
G|-------------|----------------|------------|------------|
D|-------------|----------------|------------|------------|
A|-5-----7-----|------------2/4-|-5-----7----|------------|
E|-------------|-5--4--2--------|------------|-5----------|

Verse 2
   H    S E  E. E   H    S E  E.  E   H    S E  E. E   H     S E  E  S E
G|----------------|-----------------|----------------|--------------------|
D|----------------|-----------------|------2-2--2--3-|-4-----4-2----------| x2
A|----------------|-------------4/5-|-7--------------|------------4--2----|
E|-2----2-2--2--4-|-5----5-5--5-----|----------------|-----------------5--|

Pre-chorus 2
   H    S E  E. E   H     E E E E   H     S E  E. E   H    S S S E  S S S
G|----------------|---------------|-----------------|------------------------|
D|----------------|---------------|-----------------|------------------------|
A|-2----2-2--2----|---------------|-2-----2-2--2--3-|-4----4------------4----|
E|--------------4-|-2-----2-2-4-5-|-----------------|--------2-4-5--4-5------|

Chorus 2
   Q.   S S  H      Q  Q  Q  S S S S   Q.   S S  H      H    S E  E  S E
G|----------------|------------------|----------------|----------------------|
D|----------------|------------------|----------------|-4----4-7--6--4-------|
A|-5----5----7----|----------------4-|-5----5----7----|----------------4-----|
E|--------7-------|-5--4--2--2-4-5---|--------7-------|----------------------|

   Q.    S S  H     Q  Q  Q.    E    Q.   E  H      H     S E  E  S E
G|----------------|----------------|--------------|--------------------|
D|----------------|----------------|--------------|--------------------|
A|-5-----5----7---|------------2/4-|-5----5--7----|--------------------|
E|---------7------|-5--4--2--------|--------------|-5-----5-5--5--5-5--|

Guitar Solo
   H    S E  E. E   H    S E  E.  E   H    S E  E. E   H     S S S E  E  S
G|----------------|-----------------|----------------|---------------------|
D|----------------|-----------------|------2-2--2--3-|-4-----------2-------| x2
A|----------------|-------------4/5-|-7--------------|-----------4----5--4-|
E|-2----2-2--2--4-|-5----5-5--5-----|----------------|-------2-5-----------|

Pre-chorus 3
   H    Q.  E   H    E  S E  E  S   W            H     Q. S S S S
G|------------|-------------------|------------|------------------|
D|------------|-------------------|------------|------------------|
A|-2---(2)-/9-|-9-----------------|-2----------|-4----(4)-------4-|
E|------------|------2--2-2--5--2-|------------|----------2-4-5---|

Chorus 3
   H     H      Q  Q  Q.    E   Q.    S S H      S S S S Q  S S S S S E.
G|------------|---------------|----------------|-------------------------|
D|------------|---------------|----------------|-4-4-4-4-4--4-4-4-4-4----|
A|-5-----7----|-------------4-|-5-----5---7----|----------------------7--|
E|------------|-5--4--2-------|---------7------|-------------------------|

   Q.    S S H      Q  Q  Q.    E   H     H      W
G|----------------|---------------|------------|------------|
D|----------------|---------------|------------|------------|
A|-5-----5---7----|-----------2/4-|-5-----7----|------------|
E|---------7------|-5--4--2-------|------------|-5----------|

Chorus 4
   Q.   S S  H      Q  Q  Q  S S S S   Q.   S S  H      H    S E  E  S E
G|----------------|------------------|----------------|----------------------|
D|----------------|------------------|----------------|-4----4-7--6--4-------|
A|-5----5----7----|----------------4-|-5----5----7----|----------------4-----|
E|--------7-------|-5--4--2--2-4-5---|--------7-------|----------------------|

   Q.     S S  H    Q  Q  Q.    E    Q.   E  H      H     S E  E  E.
G|----------------|----------------|--------------|--------------------|
D|----------------|----------------|--------------|--------------------|
A|-5-----5----7---|------------2/4-|-5----5--7----|------------4--7----|
E|---------7------|-5--4--2--------|--------------|-5-----5-7----------|

Outro
   Q.   S S  H      Q  Q  Q  S S S S   Q.   S S  H      H    S E  E  S E
G|----------------|------------------|----------------|----------------------|
D|----------------|------------------|----------------|-4----4-7--6--4-------|
A|-5----5----7----|----------------4-|-5----5----7----|----------------4-----|
E|--------7-------|-5--4--2--2-4-5---|--------7-------|----------------------|

   Q.   S S  Q.   S S   Q  Q  Q  S S S S   Q.   S S  Q.   S S
G|--------------------|------------------|--------------------|
D|--------------------|------------------|--------------------|
A|-5----5-----7---7---|----------------4-|-5----5----7----7-8-|
E|--------7---------7-|-5--4--2--2-4-5---|--------7-----------|

   H     S E  E  E  S
G|--------------------|
D|-------4-4--7--6----|
A|-9----------------7-|
E|--------------------|

   Q.   S S  H      Q  Q  Q  S S S S   Q.   S S  Q.     E   H    S E  E  S E
G|----------------|------------------|--------------------|------------------|
D|----------------|------------------|--------------------|-7----7-7--7--4-4-|
A|-5----5----7----|----------------4-|-5----5----7----7/9-|------------------|
E|--------7-------|-5--4--2--2-4-5---|--------7-----------|------------------|

   Q.   S S  Q.   S S   Q  Q  Q.      E   Q.   S S  Q.   S S
G|--------------------|-----------------|--------------------|
D|--------------------|-----------------|----------------2---|
A|-5----5----7----7---|-------------2/4-|-5----5----7------2-|
E|--------7---------7-|-5--4--2---------|--------7-----------|

   Q  E.  S E  E  S S E
G|-----------------------|
D|----------4--4--7-6----| Fade out
A|--------4-----------7--|
E|-2-(2)-----------------|

Legend:
| /  slide up
| \  slide down

Rhythm Notation: 
W - Whole 
H - Half
Q - Quarter
E - Eighth
S - Sixteenth
===============================================================================
Добавлено: 10.05.2014
Другие материалы по этой песне:
  • Аккорды и текст

Страница создана 10.05.2014
http://primanota.ru/beyond/gray-trail-chords.htm
Привет, Гость.
Предлагаем пройти революционный курс по гитаре.
Подарок от PrimaNota.Ru, забирай!