PrimaNota.ru - самый крупный в мире бесплатный архив песенных текстов, аккордов, табулатур и нот


Beyond The Embrace - Insect Song - текст песни, бас-таба, видео

Регистрация Запомнить меня
Войти через:  Facebook Google Twitter Vk Yandex Mail.ru

Beyond The Embrace - Insect Song - текст песни, бас-таба, видео

Печатать
Просмотров: 190
Уроки эстрадного вокала в Санкт-Петербурге
Insect song 
The Whole Song is based on C like many other 
Beyond the Embrace Sons. I think the "Break"
Part isn't complete right, but the rest should be good.I
've done this in max. 2 hours. Go on and do
a tab by yourself, we need more Beyond The Embrace Tabs!!!!!!

Tabbed by: Domi166
Email  to: Domi166@freenet.de 


 (intro, normally no bass)
D|-----------------------------------|
A|-----------------------------------|
E|------R--E--S--T-------------------|
B|-----------------------------------|

 Verse
D|-----------------|--------------------------------|
A|--play this more-|-then play this-----------------|
E|------times------|-----------------1-1-1-1-1-1-1-1|
B|-1--1-1-1-1-1-1-1|-4-4-4-4-4-4-4-4----------------|

 Chorus                                2x
D|-----------------------------------|
A|-----------------------------------|
E|-----------------------------------|
B|-1------1-1--1------1-----4---2----|

 Verse
D|-----------------|--------------------------------|
A|--play this more-|-then play this-----------------|
E|------times------|-----------------1-1-1-1-1-1-1-1|
B|-1--1-1-1-1-1-1-1|-4-4-4-4-4-4-4-4----------------|

 Chorus                                4x
D|-----------------------------------|
A|-----------------------------------|
E|-----------------------------------|
B|-1------1-1--1------1-----4---2----|

 Bridge                              2x
D|-----|------|----|--------------------|
A|-----|------|----|--------------------|
E|-----|------|----|--------------------|
B|--11-|--11--|-11-|-4-2----------------|

 Verse 2                                                              4x
D|----------------|----------------|----------------|----------------|
A|----------------|----------------|----------------|----------------|
E|----------------|----------------|----------------|----------------|
B|1-1-1-1-1-1-1-1-|1-1-1-1-1-1-1-1-|1-1-1-1-1-1-1-1-|4-4-4-4-2-2-2-2-|

 Bridge                               6x
D|------|-----|----|--------------------|
A|------|-----|----|--------------------|
E|------|-----|----|--------------------|
B|--11--|-11--|-11-|-4-2----------------|

 Verse
D|-----------------|--------------------------------|
A|--play this more-|-then play this-----------------|
E|------times------|-----------------1-1-1-1-1-1-1-1|
B|-1--1-1-1-1-1-1-1|-4-4-4-4-4-4-4-4----------------|

Break
D|----------------------------------------|
A|----------------------------------------|
E|----------------------------------------|
B|1-x-x-x-x-1x1x-x-x-1x(1/2)x1-x-x-x--4--2|

 Verse 2                                                           
D|----------------|----------------|----------------|----------------|
A|----------------|----------------|----------------|----------------|
E|----------------|----------------|----------------|----------------|
B|1-1-1-1-1-1-1-1-|1-1-1-1-1-1-1-1-|1-1-1-1-1-1-1-1-|4-4-4-4-2-2-2-2-|

 Ending
D|-------------|
A|-------------|
E|-------------|
B|-4---2----1--|
Добавлено: 01.03.2012
Другие материалы по этой песне:
  • Аккорды и текст

Страница создана 01.03.2012
http://primanota.ru/beyond-the-embrace/insect-song-chords.htm
Привет, Гость.
Предлагаем пройти революционный курс по гитаре.
Подарок от PrimaNota.Ru, забирай!