PrimaNota.ru - самый крупный в мире бесплатный архив песенных текстов, аккордов, табулатур и нот


Beyond The Fall - It Will Never Be Too Late - таба, видео

Регистрация Запомнить меня
Войти через:  Facebook Google Twitter Vk Yandex Mail.ru

Beyond The Fall - It Will Never Be Too Late - таба, видео

Печатать
Просмотров: 137
Beyond the Fall - It will never be (too late)
Album: A day in the death of

INTRO
E |-----------------------------------------------------------------|
B |-----------------------------------------------------------------|
G |-------2---------------2---------------2---------------2---------|
D |-----3-----3---------3-----3---------3-----3---------3-----3-----|
A |-1-----------1---3-----------3---0-----------0---5-----------3---|
E |-----------------------------------------------------------------| x2 Verse


VERSE
E |-----------------------------------------------------------------|
B |-----------------------------------------------------------------|
G |-------2---------------2---------------2---------------2---------|
D |-----3-----3---------3-----3---------3-----3---------3-----3-----|
A |-1-----------1---3-----------3---0-----------0---5-----------3---|
E |-----------------------------------------------------------------| x3
   darling, i hope you get this note and need it when you're sober
   seems like it's been a million times that i've read it over
   i should be terrified and tell you how i feel

E |-----------------------------------------------------------------|
B |-----------------------------------------------------------------|
G |-------2---------------2---------------2-------------2h3p2p0-----|
D |-----3-----3---------3-----3---------3-----3-----------------3---|
A |-1-----------1---0-----------0---5-----------5-------------------|
E |-----------------------------------------------------------------|
   we both need time to heal

E |-----------------------------------------------------------------|
B |-----------------------------------------------------------------|
G |-------2---------------2---------------2---------------2---------|
D |-----3-----3---------3-----3---------3-----3---------3-----3-----|
A |-1-----------1---3-----------3---0-----------0---5-----------3---|
E |-----------------------------------------------------------------| x3
   seems like there is so many things i wish that i had told you
   i'm thinking, woman, just to tonight i wish that i could hold you
   but i am paralyzed that i can't see you again

E |-----------------------------------------------------------------|
B |-----------------------------------------------------------------|
G |-------2---------------2---------------2-------------------------|
D |-----3-----3---------3-----3---------3-----3---------------------|
A |-1-----------1---0-----------0---5-----------5-------------------|
E |-----------------------------------------------------------------|
   cause we break when we are bent


CHORUS
E |-----------------------------------------------------------------|
B |-----------------------3-----------------------------------------|
G |-------2-------------2-----2-----------2---------------2---------|
D |-----3-----3-----0-----------0-------5-----5---------5-----5-----|
A |-1-----------1-------------------3-----------3---3-----------3---|
E |-----------------------------------------------------------------| x3
   you're a million miles away - so where do i begin?
   it's too late - i know you're still with him
   darling wait, can't you see 

E |-----------------------------------------------------------------|
B |---------------------------------------3-------------------------|
G |-------2---------------2-------------2-----2---------2h3p2p0-----|
D |-----3-----3---------3-----3-----0-----------0---------------3---|
A |-1-----------1---3-----------3-----------------------------------|
E |-----------------------------------------------------------------| x2
   you'll never be too late


VERSE
E |-----------------------------------------------------------------|
B |-----------------------------------------------------------------|
G |-------2---------------2---------------2---------------2---------|
D |-----3-----3---------3-----3---------3-----3---------3-----3-----|
A |-1-----------1---3-----------3---0-----------0---5-----------3---|
E |-----------------------------------------------------------------| x3
   and now it's been another night of hoping i would find you
   i know we need some time away but now can i remind you
   we're so much better off together don't you know

E |-----------------------------------------------------------------|
B |-----------------------------------------------------------------|
G |-------2---------------2---------------2-------------2h3p2p0-----|
D |-----3-----3---------3-----3---------3-----3-----------------3---|
A |-1-----------1---0-----------0---5-----------5-------------------|
E |-----------------------------------------------------------------|
   we don't have far to go

E |-----------------------------------------------------------------|
B |-----------------------------------------------------------------|
G |-------2---------------2---------------2---------------2---------|
D |-----3-----3---------3-----3---------3-----3---------3-----3-----|
A |-1-----------1---3-----------3---0-----------0---5-----------3---|
E |-----------------------------------------------------------------| x3
   please won't you mend this broken heart if you believe that you can
   feels like we're not that far apart but we're still worlds away yet
   but i am paralyzed that i can't see you again

E |-----------------------------------------------------------------|
B |-----------------------------------------------------------------|
G |-------2---------------2---------------2-------------------------|
D |-----3-----3---------3-----3---------3-----3---------------------|
A |-1-----------1---0-----------0---5-----------5-------------------|
E |-----------------------------------------------------------------|
   cause we break when we are bent


CHORUS
E |-----------------------------------------------------------------|
B |-----------------------3-----------------------------------------|
G |-------2-------------2-----2-----------2---------------2---------|
D |-----3-----3-----0-----------0-------5-----5---------5-----5-----|
A |-1-----------1-------------------3-----------3---3-----------3---|
E |-----------------------------------------------------------------| x3
   you're a million miles away - so where do i begin?
   it's too late - i know you're still with him
   darling wait, can't you see 

E |-----------------------------------------------------------------|
B |---------------------------------------3-------------------------|
G |-------2---------------2-------------2-----2---------2h3p2p0-----|
D |-----3-----3---------3-----3-----0-----------0---------------3---|
A |-1-----------1---3-----------3-----------------------------------|
E |-----------------------------------------------------------------| x2
   you'll never be too late

SOLO
E |-------1---------------1---------------0-------------------------|
B |-------------------------------------------------------3---------|
G |-----2-----2---------2-----2---------2-----2---------2-----2-----|
D |-0-----------0---0-----------0-----------------------------------|
A |---------------------------------3-----------3---3-----------3---|
E |-----------------------------------------------------------------|

E |-------1---------------1-------------------------------0---------|
B |-----------------------------------------------------------------|
G |-----2-----2---------2-----2-----------2-------------2-----2-----|
D |-0-----------0---0-----------0-------3-----3---------------------|
A |---------------------------------1-----------1---3-----------3---|
E |-----------------------------------------------------------------|

E |-------1---------------1---------------0-------------------------|
B |-------------------------------------------------------3---------|
G |-----2-----2---------2-----2---------2-----2---------2-----2-----|
D |-0-----------0---0-----------0-----------------------------------|
A |---------------------------------3-----------3---3-----------3---|
E |-----------------------------------------------------------------|

E |-------1---------------1-----------------------------------------|
B |-----------------------------------------------------------------|
G |-----2-----2---------2-----2-----------2---------------2---------|
D |-0-----------0---0-----------0-------3-----3---------3-----3-----|
A |---------------------------------1-----------1---1-----------1---|
E |-----------------------------------------------------------------|

E |-------0---------------------------------------------------------|
B |-----------------------3---------------3-------------------------|
G |-----2-----2---------2-----2---------2-----2---------2h3p2p0-----|
D |-------------------------------------------------------------3---|
A |-3-----------3---3-----------3---3-------------------------------|
E |-----------------------------------------------------------------|


VERSE
E |-----------------------------------------------------------------|
B |-----------------------------------------------------------------|
G |-------2---------------2---------------2---------------2---------|
D |-----3-----3---------3-----3---------3-----3---------3-----3-----|
A |-1-----------1---3-----------3---0-----------0---5-----------3---|
E |-----------------------------------------------------------------| x3
   and now i'm lying all alone and know that i should move on
   if i could only start again and try to right all my wrongs
   i would be terrified of losing you again

E |-----------------------------------------------------------------|
B |-----------------------------------------------------------------|
G |-------2---------------2---------------2-------------------------|
D |-----3-----3---------3-----3---------3-----3---------------------|
A |-1-----------1---0-----------0---5-----------5-------------------|
E |-----------------------------------------------------------------|
   cause we break when we are bent


CHORUS x2
E |-----------------------------------------------------------------|
B |-----------------------3-----------------------------------------|
G |-------2-------------2-----2-----------2---------------2---------|
D |-----3-----3-----0-----------0-------5-----5---------5-----5-----|
A |-1-----------1-------------------3-----------3---3-----------3---|
E |-----------------------------------------------------------------| x3
   you're a million miles away - so where do i begin?
   it's too late - i know you're still with him
   darling wait, can't you see 

E |-----------------------------------------------------------------|
B |---------------------------------------3-------------------------|
G |-------2---------------2-------------2-----2---------2h3p2p0-----|
D |-----3-----3---------3-----3-----0-----------0---------------3---|
A |-1-----------1---3-----------3-----------------------------------|
E |-----------------------------------------------------------------| x2
   you'll never be too late

E |-----------------------------------------------------------------|
B |-----------------------3-----------------------------------------|
G |-------2-------------2-----2-----------2---------------2---------|
D |-----3-----3-----0-----------0-------5-----5---------5-----5-----|
A |-1-----------1-------------------3-----------3---3-----------3---|
E |-----------------------------------------------------------------| x3
   you're a million miles away - so where do i begin?
   it's too late - i know you're still with him
   darling wait, can't you see 

E |-----------------------------------------------------------------|
B |---------------------------------------3-------------------------|
G |-------2---------------2-------------2-----2---------------------|
D |-----3-----3---------3-----3-----0-----------0-------------------|
A |-1-----------1---3-----------3-----------------------------------|
E |-----------------------------------------------------------------| x2
   you'll never be too late
   you'll never be too late

E |-----------------------------------------------------------------|
B |-----------------------------------------------------------------|
G |-------2---------------2-----------------------------------------|
D |-----3-----3---------3-----3-----0-------------------------------|
A |-1-----------1---0-----------0-----------------------------------|
E |-----------------------------------------------------------------|
   it'll never be too late
Добавлено: 02.01.2016
Другие материалы по этой песне:
  • Аккорды и текст

Страница создана 02.01.2016
http://primanota.ru/beyond-fall/it-will-never-be-too-late-chords.htm
Привет, Гость.
Предлагаем пройти революционный курс по гитаре.
Подарок от PrimaNota.Ru, забирай!