PrimaNota.ru - самый крупный в мире бесплатный архив песенных текстов, аккордов, табулатур и нот


Beyond Broken - Spiritless - таба, видео

Регистрация Запомнить меня
Войти через:  Facebook Google Twitter Vk Yandex Mail.ru

Beyond Broken - Spiritless - таба, видео

Печатать
Просмотров: 97
Уроки эстрадного вокала в Санкт-Петербурге
Tuning: Drop C

/ - Slide up
\ - Slide down
. - Palm mute
~ - Let ring
h - Hammer-on
p - Pull-off
tr - Tremolo
wh - Whammy bar/pedal
< > - Natural harmonic

Intro (Clean)

Guitar 1 

|----------------------------------------------------------|
|----------------------------------------------------------|
|-------------10---------------9---------------7----<5>----| 
|----5/7--------------5/7-------------5/7------------------| (x2)
|----------------------------------------------------------|
|----------------------------------------------------------|

Guitar 2 

|------------------------|
|---------13-------------|
|----10-9----9-10-9-9----|
|------------------------| (x12)
|------------------------|
|------------------------|

Breakdown 1 (Distortion on) 

Both Guitars

|---------|
|---------|
|---------|
|----0----|
|----0----|
|----0----|

Guitar 1

|-------------------------------------|
|-------------------------------------|
|-------------------------------------|
|----0--0-0-000-0-0-000-0-00000000----| (x2)
|----0--0-0-000-0-0-000-0-00000000----|
|----0--0-0-000-0-0-000-0-00000000----|
     .  . . ... . . ... . ........

|----------8-------|
|----5--6-----6----|
|------------------|
|------------------| (x4)
|------------------|
|------------------|

|-------------------------------------|
|-------------------------------------|
|-------------------------------------|
|----0--0-0-000-0-0-000-0-00000000----| (x2)
|----0--0-0-000-0-0-000-0-00000000----|
|----0--0-0-000-0-0-000-0-00000000----|
     .  . . ... . . ... . ........

|----------8-------|
|----5--6-----6----|
|------------------|
|------------------| (x4)
|------------------|
|------------------|

|---------|
|----6----|
|----9----|
|---------|
|---------|
|---------|

Guitar 2

|-------------------------------------|
|-------------------------------------|
|-------------------------------------|
|----0--0-0-000-0-0-000-0-00000000----| (x2)
|----0--0-0-000-0-0-000-0-00000000----|
|----0--0-0-000-0-0-000-0-00000000----|
     .  . . ... . . ... . ........

|-------------------------------------|
|-------------------------------------|
|-------------------------------------|
|----0~-0~0~000~0~0~000~0~00000000----| (x2)
|----0~-0~0~000~0~0~000~0~00000000----|
|----0~-0~0~000~0~0~000~0~00000000----|
     .  . . ... . . ... . ........

|-------------------------------------|
|-------------------------------------|
|-------------------------------------|
|----0--0-0-000-0-0-000-0-00000000----| (x2)
|----0--0-0-000-0-0-000-0-00000000----|
|----0--0-0-000-0-0-000-0-00000000----|
     .  . . ... . . ... . ........

|-------------------------------------|
|-------------------------------------|
|-------------------------------------|
|----0~-0~0~000~0~0~000~0~00000000----| (x2)
|----0~-0~0~000~0~0~000~0~00000000----|
|----0~-0~0~000~0~0~000~0~00000000----|
     .  . . ... . . ... . ........

Verse 1

|-------------------------------------------------------------------------|
|-------------------------------------------------------------------------|
|-------------------------------------------------------------------------|
|--------------------------------------------------------------------7----| (x2)
|------7h8---7h8-8-----7h8---10-8-7-5---7h8---7h8-8-----7h8---10-8-7------|
|----0-----0-------8-0-----0----------0-----0-------8-0-----0-------------|

Verse 2

Guitar 1

|--------------------------------------------------------------|
|--------------------------------------------------------------|
|--------------------------------------------------------------|
|--------------------------------------------------------------| (x4)
|----8tr-----7tr--5tr---3tr---5tr--8tr-----7tr--5tr----10tr----|
|--------------------------------------------------------------|

|-------------|
|----<5>wh----|
|----<5>wh----|
|-------------|
|-------------|
|-------------|

Guitar 2 (x2)

|-----------|
|-----------|
|-----------|
|-----------|
|----0tr----|
|----0tr----|
     .

|-----------------------------------------------------|
|-----------------------------------------------------|
|-----------------------------------------------------|
|----0----0-0~-0--0--0-0~-0----0-0~-0--0-5-5-5-5-5----|
|----0----0-0~-0--0--0-0~-0----0-0~-0--0-5-5-5-5-5----|
|----0----0-0~-0--0--0-0~-0----0-0~-0--0-5-5-5-5-5----|
     .    . .  .  .  . .  .    . .  .  . 

Guitar 3

|------------------------------------------------------------------|
|------------------------------------------------------------------|
|------------------------------------------------------------------|
|------------------------------------------------------------------| (x2)
|----12tr-----10tr--8tr---7tr---8tr--12tr-----10tr--8tr----15tr----|
|------------------------------------------------------------------|

Breakdown 2

|----------------------------------------------------|
|----------------------------------------------------|
|----------------------------------------------------|
|----000-0-0----------000-0-0-----888-888-333-333----| (x4)
|----000-0-0----------000-0-0-----888-888-333-333----|
|----000-0-0----------000-0-0-----888-888-333-333----|
     ... . .          ... . .     ... ... ... ...

Chorus

Guitar 1

|---------------------------------------------------|
|---------------------------------------------------|
|---------------------------------------------------|
|----0-0-0-0-----------------12----------7-8-7------| (x2)
|----0-0-0-0------------8-10----10-8---5-------5----|
|----0-0-0-0----------8--------------5--------------|
     . . . 

|-----------------------------------------------------------------------|
|-----------------------------------------------------------------------|
|-----------------------------------------------------------------------|
|----0-0-0-0-0-0-0-0-0-0-0-0-0-0-0-0-8-8-8-8-8-8-8-8-5-5-5-5-5-5-5-5----| (x2)
|----0-0-0-0-0-0-0-0-0-0-0-0-0-0-0-0-8-8-8-8-8-8-8-8-5-5-5-5-5-5-5-5----|
|----0-0-0-0-0-0-0-0-0-0-0-0-0-0-0-0-8-8-8-8-8-8-8-8-5-5-5-5-5-5-5-5----|
     . . . . . . . . . . . . . . . . . . . . . . . . . . . . . . . .    

Guitar 2

|---------------------------------------------------|
|---------------------------------------------------|
|----------10---------------------------------------|
|----0-0-0-X-----------------12----------7-8-7------| (x2)
|----0-0-0-8------------8-10----10-8---5-------5----|
|----0-0-0------------8--------------5--------------|
     . . .

Verse 3

|------------------------------------------|
|------------------------------------------|
|------------------------------------------|
|------------------------------------------| (x4)
|------7h8p7---8-8-7-----10-10--8----------|
|----0-------7-------7---8--8---8--10p7----|

|------------------------------------|
|------------------------------------|
|------------------------------------|
|------------------------------------| (x2)
|------7h8p7---8-8-7-----8-8--3-3----|
|----0-------7-------7---8-8--3-3----|

Chorus

|---------------------------------------------------|
|---------------------------------------------------|
|---------------------------------------------------|
|----0-0-0-0-----------------12----------7-8-7------| 
|----0-0-0-0------------8-10----10-8---5-------5----|
|----0-0-0-0----------8--------------5--------------|
     . . . 

|-----------------------------------------------------|
|-----------------------------------------------------|
|-----------------------------------------------------|
|----0-0-0-0-------12\---------12----------7-8-7------| 
|----0-0-0-0-------12\----8-10----10-8---5-------5----|
|----0-0-0-0-------12\--8--------------5--------------|
     . . . 

|-----------------------------------------------------------------------|
|-----------------------------------------------------------------------|
|-----------------------------------------------------------------------|
|----0-0-0-0-0-0-0-0-0-0-0-0-0-0-0-0-8-8-8-8-8-8-8-8-5-5-5-5-5-5-5-5----| (x2)
|----0-0-0-0-0-0-0-0-0-0-0-0-0-0-0-0-8-8-8-8-8-8-8-8-5-5-5-5-5-5-5-5----|
|----0-0-0-0-0-0-0-0-0-0-0-0-0-0-0-0-8-8-8-8-8-8-8-8-5-5-5-5-5-5-5-5----|
     . . . . . . . . . . . . . . . . . . . . . . . . . . . . . . . .

Outro     

|-------------------------------------------------------------------------|
|-------------------------------------------------------------------------|
|-------------------------------------------------------------------------|
|-------------------------------------------------------------------------|
|----0-0-3p0-0-0-3p0-0-0-3p0-0-0-3p0-8-8-12p8-8-8-12p8-5-5-8p5-5-5-8p5----|
|----0-0-3p0-0-0-3p0-0-0-3p0-0-0-3p0-8-8-12p8-8-8-12p8-5-5-8p5-5-5-8p5----|
     . .     . .     . .     . .     . .      . .      . .     . .

|-------------------------------------------------------------------------|
|-------------------------------------------------------------------------|
|-------------------------------------------------------------------------|
|-------------------------------------------------------------------------|
|----0-0-3p0-0-0-3p0-0-0-3p0-0-0-3p0-8-8-12p8-8-8-12p8-5-5-8p5-5-5-8-5----|
|----0-0-3p0-0-0-3p0-0-0-3p0-0-0-3p0-8-8-12p8-8-8-12p8-5-5-8p5-5-5-8-5----|
     . .     . .     . .     . .     . .      . .      . .     . . . 
Добавлено: 11.08.2013
Другие материалы по этой песне:
  • Аккорды и текст

Страница создана 11.08.2013
http://primanota.ru/beyond-broken/spiritless-chords.htm
Привет, Гость.
Предлагаем пройти революционный курс по гитаре.
Подарок от PrimaNota.Ru, забирай!