PrimaNota.ru - самый крупный в мире бесплатный архив песенных текстов, аккордов, табулатур и нот


Beyond All Reason - Love Crossed Pistols - таба, видео

Регистрация Запомнить меня
Войти через:  Facebook Google Twitter Vk Yandex Mail.ru

Beyond All Reason - Love Crossed Pistols - таба, видео

Печатать
Просмотров: 123
Уроки эстрадного вокала в Санкт-Петербурге
Beyond All Reason
Love Crossed Pistols
Words Of Betrayal (2005)
Tabbed By - Killswitch_mike
Tuning - C-G-C-F-A-D

Introduction - Begin With Gain Kicking In...

Guitar I & II
D||-----------------------------------------------------||
A||-----------------------------------------xxxxxxx-----||
F||-----------------------------------------xxxxxxx-----||
C||--6-6--6--4-4--9-9-4-4---6-6--6-4-4--4---------------||
G||--6-6--6--4-4--9-9-4-4---6-6--6-4-4--4---------------||
C||--6-6--6--4-4--9-9-4-4---6-6--6-4-4--4---------------||


Pre-Verse;
Guitar I & II
D||---------------------------------------------------------------------||
A||---------------------------------------------------------------------||
F||---------------------------------------3-4----3-4----3-4-3-3-4-3-4---||
C||--6-6-6-6-6-6-6-6--4-4-4-4-4-4-4-4--2------4------6------------------||
G||--6-6-6-6-6-6-6-6--4-4-4-4-4-4-4-4--2------4------6------------------||
C||--6-6-6-6-6-6-6-6--4-4-4-4-4-4-4-4--2-2----4-4----6-6----------------||
PM.                                      .      .      .      .

D||---------------------------------------------------------------------||
A||---------------------------------------------------------------------||
F||---------------------------------------3-4----3-4----4~--------------||
C||--6-6-6-6-6-6-6-6--4-4-4-4-4-4-4-4--2------4------6------------------||
G||--6-6-6-6-6-6-6-6--4-4-4-4-4-4-4-4--2------4------6------------------||
C||--6-6-6-6-6-6-6-6--4-4-4-4-4-4-4-4--2-2----4-4----6-6----------------||
PM.                                      .      .      .      

Verse;
Guitar I
Clean Part-

D|----------------------------------------------||
A|---0-0---0-0------0-0---0-0------0-0---0-0----||
F|--8-8-8-8-8-8----8-8-8-8-8-8----8-8-8-8-8-8---||
C|-9-----9-----9--8-----8-----8--9-----9-----9--||
G|----------------------------------------------||
C|----------------------------------------------||

Guitar II

D||------------------------------------------||
A||-0-0-0-0-0-0--0-0-0-0-0-0--0-0-0-0-0-0----||
F||-8-8-8-8-8-8--8-8-8-8-8-8--8-8-8-8-8-8----||
C||-9-9-9-9-9-9--8-8-8-8-8-8--9-9-9-9-9-9----||
G||------------------------------------------||
C||------------------------------------------||

distorted part

D||-----------------------------------------------------||
A||-----------------0-1---3*----------------0-1---------||
F||--------------------3------------------------3h4h3---||
C||--6-6-6-6-6-6-6-------------4-4-4-4-4-4--------------||
G||--6-6-6-6-6-6-6-------------4-4-4-4-4-4--------------||
C||--6-6-6-6-6-6-6-------------4-4-4-4-4-4--------------||

D||---------------------------||
A||-----------------0-1---3*--||
F||--------------------3------||
C||--2-2-2-2-2-2-2------------||
G||--2-2-2-2-2-2-2------------||
C||--2-2-2-2-2-2-2------------||


Chorus;

D||---------------------------------------------------------------------||
A||---------------------------------------------------------------------||
F||---------------------------------------3-4----3-4----3-4-3-3-4-3-4---||
C||--6-6-6-6-6-6-6-6--4-4-4-4-4-4-4-4--2------4------6------------------||
G||--6-6-6-6-6-6-6-6--4-4-4-4-4-4-4-4--2------4------6------------------||
C||--6-6-6-6-6-6-6-6--4-4-4-4-4-4-4-4--2-2----4-4----6-6----------------||
PM.                                      .      .      .      .

D||---------------------------------------------------------------------||
A||---------------------------------------------------------------------||
F||---------------------------------------3-4----3-4----4~--------------||
C||--6-6-6-6-6-6-6-6--4-4-4-4-4-4-4-4--2------4------6------------------||
G||--6-6-6-6-6-6-6-6--4-4-4-4-4-4-4-4--2------4------6------------------||
C||--6-6-6-6-6-6-6-6--4-4-4-4-4-4-4-4--2-2----4-4----6-6----------------||
PM.                                      .      .      .  

D||---------------------------------------------------------------------||
A||---------------------------------------------------------------------||
F||---------------------------------------3-4----3-4----3-4-3-3-4-3-4---||
C||--6-6-6-6-6-6-6-6--4-4-4-4-4-4-4-4--2------4------6------------------||
G||--6-6-6-6-6-6-6-6--4-4-4-4-4-4-4-4--2------4------6------------------||
C||--6-6-6-6-6-6-6-6--4-4-4-4-4-4-4-4--2-2----4-4----6-6----------------||
PM.                                      .      .      .      .

D||---------------------------------------------------------------------||
A||---------------------------------------------------------------------||
F||---------------------------------------3-4----3-4----4~--------------||
C||--6-6-6-6-6-6-6-6--4-4-4-4-4-4-4-4--2------4------6------------------||
G||--6-6-6-6-6-6-6-6--4-4-4-4-4-4-4-4--2------4------6------------------||
C||--6-6-6-6-6-6-6-6--4-4-4-4-4-4-4-4--2-2----4-4----6-6----------------||
PM.                                      .      .      .      


Verse;

D||----------------------------1------1----1--1---||
A||----------------------------2------2----2--2---||
F||--1--35353535--3--35353535----11111--111--1----||
C||-----------------------------------------------||
G||-----------------------------------------------||
C||-----------------------------------------------||
PM.     ........     ........    .....  ...  .

D||----------------------------------------||
A||----------------------------------------||
F||--1-444444444-3-3333333--4-44444444-----||
C||----------------------------------------||
G||----------------------------------------||
C||----------------------------------------||


Chorus;

D||---------------------------------------------------------------------||
A||---------------------------------------------------------------------||
F||---------------------------------------3-4----3-4----3-4-3-3-4-3-4---||
C||--6-6-6-6-6-6-6-6--4-4-4-4-4-4-4-4--2------4------6------------------||
G||--6-6-6-6-6-6-6-6--4-4-4-4-4-4-4-4--2------4------6------------------||
C||--6-6-6-6-6-6-6-6--4-4-4-4-4-4-4-4--2-2----4-4----6-6----------------||
PM.                                      .      .      .      .

D||---------------------------------------------------------------------||
A||---------------------------------------------------------------------||
F||---------------------------------------3-4----3-4----4~--------------||
C||--6-6-6-6-6-6-6-6--4-4-4-4-4-4-4-4--2------4------6------------------||
G||--6-6-6-6-6-6-6-6--4-4-4-4-4-4-4-4--2------4------6------------------||
C||--6-6-6-6-6-6-6-6--4-4-4-4-4-4-4-4--2-2----4-4----6-6----------------||
PM.                                      .      .      .  

D||---------------------------------------------------------------------||
A||---------------------------------------------------------------------||
F||---------------------------------------3-4----3-4----3-4-3-3-4-3-4---||
C||--6-6-6-6-6-6-6-6--4-4-4-4-4-4-4-4--2------4------6------------------||
G||--6-6-6-6-6-6-6-6--4-4-4-4-4-4-4-4--2------4------6------------------||
C||--6-6-6-6-6-6-6-6--4-4-4-4-4-4-4-4--2-2----4-4----6-6----------------||
PM.                                      .      .      .      .

D||---------------------------------------------------------------------||
A||---------------------------------------------------------------------||
F||---------------------------------------3-4----3-4----4~--------------||
C||--6-6-6-6-6-6-6-6--4-4-4-4-4-4-4-4--2------4------6------------------||
G||--6-6-6-6-6-6-6-6--4-4-4-4-4-4-4-4--2------4------6------------------||
C||--6-6-6-6-6-6-6-6--4-4-4-4-4-4-4-4--2-2----4-4----6-6----------------||
PM.                                      .      .      .      

Bridge;

D||-----------------------||
A||--3*b==r==--3*brbr-----||
F||-----------------------||
C||-----------------------||
G||-----------------------||
C||-----------------------||


Solo;

D||--------------------------------------16--20b19b20b||
A||-12----------12-12--------------12-13--------------||
F||-13----------13-13---15*-13b-----------------------||
C||----13-13-13---------------------------------------||
G||---------------------------------------------------||
C||---------------------------------------------------||

D||-------------------------------||
A||----------------12-11-9-7-3b---||
F||-------------------------------||
C||--------------11---------------||
G||------------14-----------------||
C||-0-12-14-15--------------------||
PM  . .. .. ..

Chorus;

D||---------------------------------------------------------------------||
A||---------------------------------------------------------------------||
F||---------------------------------------3-4----3-4----3-4-3-3-4-3-4---||
C||--6-6-6-6-6-6-6-6--4-4-4-4-4-4-4-4--2------4------6------------------||
G||--6-6-6-6-6-6-6-6--4-4-4-4-4-4-4-4--2------4------6------------------||
C||--6-6-6-6-6-6-6-6--4-4-4-4-4-4-4-4--2-2----4-4----6-6----------------||
PM.                                      .      .      .      .

D||---------------------------------------------------------------------||
A||---------------------------------------------------------------------||
F||---------------------------------------3-4----3-4----4~--------------||
C||--6-6-6-6-6-6-6-6--4-4-4-4-4-4-4-4--2------4------6------------------||
G||--6-6-6-6-6-6-6-6--4-4-4-4-4-4-4-4--2------4------6------------------||
C||--6-6-6-6-6-6-6-6--4-4-4-4-4-4-4-4--2-2----4-4----6-6----------------||
PM.                                      .      .      .  

D||---------------------------------------------------------------------||
A||---------------------------------------------------------------------||
F||---------------------------------------3-4----3-4----3-4-3-3-4-3-4---||
C||--6-6-6-6-6-6-6-6--4-4-4-4-4-4-4-4--2------4------6------------------||
G||--6-6-6-6-6-6-6-6--4-4-4-4-4-4-4-4--2------4------6------------------||
C||--6-6-6-6-6-6-6-6--4-4-4-4-4-4-4-4--2-2----4-4----6-6----------------||
PM.                                      .      .      .      .

D||---------------------------------------------------------------------||
A||---------------------------------------------------------------------||
F||---------------------------------------3-4----3-4----4~--------------||
C||--6-6-6-6-6-6-6-6--4-4-4-4-4-4-4-4--2------4------6------------------||
G||--6-6-6-6-6-6-6-6--4-4-4-4-4-4-4-4--2------4------6------------------||
C||--6-6-6-6-6-6-6-6--4-4-4-4-4-4-4-4--2-2----4-4----6-6----------------||
PM.                                      .      .      .      


http://profile.myspace.com/index.cfm?fuseaction=user.viewprofile&friendid=4263785

Signed With Ad Altiora Records 








Добавлено: 06.07.2012
Другие материалы по этой песне:
  • Аккорды и текст

Страница создана 06.07.2012
http://primanota.ru/beyond-all-reason/love-crossed-pistols-chords.htm
Привет, Гость.
Предлагаем пройти революционный курс по гитаре.
Подарок от PrimaNota.Ru, забирай!