PrimaNota.ru - самый крупный в мире бесплатный архив песенных текстов, аккордов, табулатур и нот


Beyond All Reason - Is This My Last Lie - таба, видео

Регистрация Запомнить меня
Войти через:  Facebook Google Twitter Vk Yandex Mail.ru

Beyond All Reason - Is This My Last Lie - таба, видео

Печатать
Просмотров: 143
---------------------------------------------------------------------------|
                Is This My Last Lie? - Beyond all Reason                   |
---------------------------------------------------------------------------|

Tuning: CGCFAD

Think this is pretty accurate. Sick of such a good band not having any tabs up, let me 
if theres any others that you want me to have go at and I'll do my best.

Intro
D|-------------------------------------------------------------------------|
A|-------------------------------------------------------------------------|
F|----x-8-x-6-x-4h6p4-x-3h4p3-----x-8-x-6-x-4h6p4-3h4p3--------------------|
C|-------------------------------------------------------------------------|
G|-------------------------------------------------------------------------|
C|-6--------------------------x-6------------------------------------------|


D|-------------------------------------------------------------------------|
A|-------------------------------------------------------------------------|
F|-------------3-x-3-x-3/4-------------3-x-3-x-3/4-------------------------|
C|-------------------------------------------------------------------------|
G|-------------------------------------------------------------------------|
C|-2-x-2-x-2-x-------------2-x-2-x-2-x-------------------------------------|


D|-------------------------------------------------------------------------|
A|-------------------------------------------------------------------------|
F|-------------------------------------------------------------------------|
C|-------------------------------------------------------------------------|
G|----x-6-x-4-x-2h4p2-x-1h2p1-----x-6-x-4-x-2h4p2-1h2p1--------------------|
C|-6--------------------------x-6------------------------------------------|

D|-------------------------------------------------------------------------|
A|-------------------------------------------------------------------------|
F|-------------------------------------------------------------------------|
C|-------------------------------------------------------------------------|
G|-------------1-x-1-x-1/2-------------1-x-1-x-1/2-------------------------|
C|-2-x-2-x-2-x-------------2-x-2-x-2-x-------------------------------------|


Verse 1
D|-------------------------------------------------------------------------|
A|-------------------------------------------------------------------------|
F|------------------------------------3---3---3/4--------------3---3--3/4--|
C|-------6----------6----------2------------------------2------------------|
G|-6-6-6-6----6-6-6-6----2-2-2-2--2-2---2---2-----2-2-2-2--2-2---2---2-----|
C|-6-6-6-6----6-6-6-6----2-2-2-2--2-2---2---2-----2-2-2-2--2-2---2---2-----|
   . . .      . . .      . . .    . .   .   .     . . .    . .   .   .

D|-------------------------------------------------------------------------|
A|-------------------------------------------------------------------------|
F|-------------------3---3---3/4-----------3---3---3/4---------------------|
C|-6--------2---------------------2----------------------------------------|
G|-6-(x32)--2-(x9)----------------2-(x9)-----------------------------------|
C|-6--------2----------2---2------2----------2---2-------------------------|
   .        .          .   .      .          .   .

Chorus
D|-------------------------------------------------------------------------|
A|-------------------------------------------------------------------------|
F|-----------------------------------------2-------------------------------|
C|-6--6-6--6-6-6--7--6-6-6--6--4-4--4-4-4--4--4--4-4--4--------------------|
G|-4--4-4--4-4-4--4--4-4-4--4--2-2--2-2-2--2--2--2-2--2--------------------|
C|-------------------------------------------------------------------------|


D|-------------------------------------------------------------------------|
A|-------------------------------------------------------------------------|
F|-------------------------------------------------------------------------|
C|-9-9-9--9-9--9-9-9--9-9--4-4--4--6-4--9-9--9--9-9------------------------|
G|-7-7-7--7-7--7-7-7--7-7--4-4--4--4-4--7-7--7--7-7------------------------|
C|-7-7-7--7-7--7-7-7--7-7--4-4--4--4-4--7-7--7--7-7------------------------|


D|-------------------------------------------------------------------------|
A|-------------------------------------------------------------------------|
F|-------------------------------------------------------------------------|
C|-6-6--6-6-6--6-6-6--6-6-6-6---4-4--4-4-4--4-4-4--4-4-4-4-----------------|
G|-4-4--4-4-4--4-4-4--4-4-4-4---2-2--2-2-2--2-2-2--2-2-2-2-----------------|
C|-------------------------------------------------------------------------|
   .    . .    . .    . . .     .    . .    . .    . . .

D|-------------------------------------------------------------------------|
A|-------------------------------------------------------------------------|
F|-------------------------------------------------------------------------|
C|-9-9-9--9-9--9-9-9--9-9--4-4--4--6-4--9-9--9--9-9------------------------|
G|-7-7-7--7-7--7-7-7--7-7--4-4--4--4-4--7-7--7--7-7------------------------|
C|-7-7-7--7-7--7-7-7--7-7--4-4--4--4-4--7-7--7--7-7------------------------|

Verse 2
D|-------------------------------------------------------------------------|
A|-----------------------4h5-----------------5p4-------------5p4-----------|
F|-------4h6-----6h8---------------------------------4h6-------------------|
C|--------------------------------(x2)--------------------------------(x2)-|
G|-4-4-4-----4-4-----4-4-----4-4-4-----0-0-0-----0-0-----0-0-----0-0-0-----|
C|-------------------------------------------------------------------------|
   . . .     . .     . .     . . .     . . .     . .     . .     . . .

D|-----------------------2h4-----------------4p2-------------4p2-----------|
A|-------4h5-----5h7---------------------------------4h5-------------------|
F|-------------------------------------------------------------------------|
C|--------------------------------(x2)--------------------------------(x2)-|
G|-4-4-4-----4-4-----4-4-----4-4-4-----0-0-0-----0-0-----0-0-----0-0-0-----|
C|-------------------------------------------------------------------------|
   . . .     . .     . .     . . .     . . .     . .     . .     . . .

D|-------------------------------------------------------------------------|
A|-------------------------------------------------------------------------|
F|-------------------------------------------------------------------------|
C|-3*----------------------------------------------------------------------|
G|-3*--(x4)----------------------------------------------------------------|
C|-3*----------------------------------------------------------------------|

Chorus
D|-------------------------------------------------------------------------|
A|-------------------------------------------------------------------------|
F|-----------------------------------------2-------------------------------|
C|-6--6-6--6-6-6--7--6-6-6--6--4-4--4-4-4--4--4--4-4--4--------------------|
G|-4--4-4--4-4-4--4--4-4-4--4--2-2--2-2-2--2--2--2-2--2--------------------|
C|-------------------------------------------------------------------------|


D|-------------------------------------------------------------------------|
A|-------------------------------------------------------------------------|
F|-------------------------------------------------------------------------|
C|-9-9-9--9-9--9-9-9--9-9--4-4--4--6-4--9-9--9--9-9------------------------|
G|-7-7-7--7-7--7-7-7--7-7--4-4--4--4-4--7-7--7--7-7------------------------|
C|-7-7-7--7-7--7-7-7--7-7--4-4--4--4-4--7-7--7--7-7------------------------|


D|-------------------------------------------------------------------------|
A|-------------------------------------------------------------------------|
F|-------------------------------------------------------------------------|
C|-6-6--6-6-6--6-6-6--6-6-6-6---4-4--4-4-4--4-4-4--4-4-4-4-----------------|
G|-4-4--4-4-4--4-4-4--4-4-4-4---2-2--2-2-2--2-2-2--2-2-2-2-----------------|
C|-------------------------------------------------------------------------|
   .    . .    . .    . . .     .    . .    . .    . . .

D|-------------------------------------------------------------------------|
A|-------------------------------------------------------------------------|
F|-------------------------------------------------------------------------|
C|-9-9-9--9-9--9-9-9--9-9--4-4--4--6-4--9-9--9--9-9------------------------|
G|-7-7-7--7-7--7-7-7--7-7--4-4--4--4-4--7-7--7--7-7------------------------|
C|-7-7-7--7-7--7-7-7--7-7--4-4--4--4-4--7-7--7--7-7------------------------|


D|-4p0-----------5p0-----5p0-----------------------------------------------|
A|-----h5--(x6)------h5------h5--------------------------------------------|
F|-------------------------------------------------------------------------|
C|-------------------------------------------------------------------------|
G|-------------------------------------------------------------------------|
C|-------------------------------------------------------------------------|

Bridge
D|-------------------------------------------------------------------------|
A|-----4---5-----4---5-----4---4h5-----4---5-----4---5-----9-7-6-----------|
F|---------------------------------------------------------------8---------|
C|-------------------------------------------------------------------------|
G|-4-4---4---4-4---4---4-4---4-----4-4---4---4-4---4---4-4-----------------|
C|-------------------------------------------------------------------------|
   . .   .   . .   .   . .   .     . .   .   . .   .   . .

D|-----2---4-----2---4-----2---2h4-----2---4-----2---4-----7-5-4-----------|
A|---------------------------------------------------------------5---------|
F|-------------------------------------------------------------------------|
C|-------------------------------------------------------------------------|
G|-4-4---4---4-4---4---4-4---4-----4-4---4---4-4---4---4-4-----------------|
C|-------------------------------------------------------------------------|
   . .   .   . .   .   . .   .     . .   .   . .   .   . .

D|-------------------------------------------------------------------------|
A|-------------------------------------------------------------------------|
F|-------------------------------------------------------------------------|
C|-6-6-6--6--6--6------------------4-4----------------7-7-------9----------|
G|-4-4-4--4--4--4------------------4-4----------------7-7--x-x--7----------|
C|---------------------------------4-4----------------7-7--x-x--7----------|
   . . .

Chorus
D|-------------------------------------------------------------------------|
A|-------------------------------------------------------------------------|
F|-----------------------------------------2-------------------------------|
C|-6--6-6--6-6-6--7--6-6-6--6--4-4--4-4-4--4--4--4-4--4--------------------|
G|-4--4-4--4-4-4--4--4-4-4--4--2-2--2-2-2--2--2--2-2--2--------------------|
C|-------------------------------------------------------------------------|


D|-------------------------------------------------------------------------|
A|-------------------------------------------------------------------------|
F|-------------------------------------------------------------------------|
C|-9-9-9--9-9--9-9-9--9-9--4-4--4--6-4--9-9--9--9-9------------------------|
G|-7-7-7--7-7--7-7-7--7-7--4-4--4--4-4--7-7--7--7-7------------------------|
C|-7-7-7--7-7--7-7-7--7-7--4-4--4--4-4--7-7--7--7-7------------------------|


D|-------------------------------------------------------------------------|
A|-------------------------------------------------------------------------|
F|-------------------------------------------------------------------------|
C|-6-6--6-6-6--6-6-6--6-6-6-6---4-4--4-4-4--4-4-4--4-4-4-4-----------------|
G|-4-4--4-4-4--4-4-4--4-4-4-4---2-2--2-2-2--2-2-2--2-2-2-2-----------------|
C|-------------------------------------------------------------------------|
   .    . .    . .    . . .     .    . .    . .    . . .

D|-------------------------------------------------------------------------|
A|-------------------------------------------------------------------------|
F|-------------------------------------------------------------------------|
C|-9-9-9--9-9--9-9-9--9-9--4-4--4--6-4--9-9--9--9-9------------------------|
G|-7-7-7--7-7--7-7-7--7-7--4-4--4--4-4--7-7--7--7-7------------------------|
C|-7-7-7--7-7--7-7-7--7-7--4-4--4--4-4--7-7--7--7-7------------------------|

Outro
D|--4p0----------2p0------2p0----------------------------------------------|
A|------h5-(x6)------h4p0-----h4/5-----------------------------------------|
F|-------------------------------------------------------------------------|
C|-------------------------------------------------------------------------|
G|-------------------------------------------------------------------------|
C|-------------------------------------------------------------------------|


| /  slide up
| \  slide down
| h  hammer-on
| p  pull-off
| ~  vibrato
| *  harmonic
| x  Mute note
| .  Palm mute
===========================================================================|
Добавлено: 10.03.2012
Вам также может быть интересно:
Другие материалы по этой песне:
  • Аккорды и текст

Страница создана 10.03.2012
http://primanota.ru/beyond-all-reason/is-this-my-last-lie-chords.htm
Привет, Гость.
Предлагаем пройти революционный курс по гитаре.
Подарок от PrimaNota.Ru, забирай!