PrimaNota.ru - самый крупный в мире бесплатный архив песенных текстов, аккордов, табулатур и нот


Beyond All Reason - A Thorn In My Heart - таба, видео

Регистрация Запомнить меня
Войти через:  Facebook Google Twitter Vk Yandex Mail.ru

Beyond All Reason - A Thorn In My Heart - таба, видео

Печатать
Просмотров: 115
---------------------------------------------------------------------------|
                A Thorn In My Heart - Beyond All Reason                    |
---------------------------------------------------------------------------|

Tabbed by: dtm187

Tuning:Drop D

Probably my favourite song by this band so figured I would tab it. Think its
pretty much accurate, only got the first half of the solo but I've got a mate working on 
second bit as my tabbing by ear skills mean im only competent enough to get the first 
haha, will add it when thats done hopefully in a couple of days.

Intro
e|-------------------------------------------------------------------------|
B|-------------------------------------------------------------------------|
G|-------------------------------------------------------------------------|
D|--------------------------------------------------2h3p2--2-3-2-----------|
A|-----3---5p3-----3---5---1---1h3------3---5p3------------------3h5-------|
D|-0-0---0-----0-0---0---0---0------0-0---0-----0-0------------------------|
   . .   .     . .   .   .   .      . .   .     . .

Verse Part 1
e|-------------------------------------------------------------------------|
B|-------------------------------------------------------------------------|
G|-------------------------------------------------------------------------|
D|-3--3-3--3--3-3--3--3-3--3--3-3--3-3-3--5--5-5--5--5-5--5-5--------------|
A|-1--1-1--1--1-1--1--1-1--1--1-1--1-1-1--3--3-3--3--3-3--3-3--------------|
D|-------------------------------------------------------------------------|
      . .     . .     . .     . .    .       . .     . .    .

e|-------------------------------------------------------------------------|
B|-------------------------------------------------------------------------|
G|-------------------------------------------------------------------------|
D|-2-2--2-2--2--2-2--2-----------------------------------------------------|
A|-0-0--0-0--0--0-0--0-----------------------------------------------------|
D|-------------------------------------------------------------------------|
   .    . .     . .

e|-------------------------------------------------------------------------|
B|-5h6-p5-------------------5h6-p5-----------------------------------------|
G|---------------------------------5---------------------------------------|
D|-------------------------------------------------------------------------|
A|-------------------------------------------------------------------------|
D|-------------------------------------------------------------------------|

Lead bit at the start of the verse, play once only


Verse Part 2
e|-------------------------------------------------------------------------|
B|-------------------------------------------------------------------------|
G|-5--5--5--5-5--5--5------------------------------------------------------|
D|-3--3--3--3-3--3--3--5-5--5--5--2-2--2--2--(x2)--------------------------|
A|-1--1--1--1-1--1--1--3-3--3--3--0-0--0--0--------------------------------|
D|-------------------------------------------------------------------------|


e|----|--------------------------------------------------------------------|
B|----|--------------------------------------------------------------------|
G|----|--------------------------------------------------------------------|
D|----|--------------------------------------------------------------------|
A|----|-------5-------3-------3--------------------------------------------|
D|-3b-|-0-3-0---0-3-0---0-3-0---0-3-2*-------------------------------------|
        . . .   . . .   . . .   . .

e|-------------------------------------------------------------------------|
B|-------------------------------------------------------------------------|
G|-------------------------------------------------------------------------|
D|-2h3p2---3-2-0-----------------------------------------------------------|
A|---------------3h5-------------------------------------------------------|
D|-------------------------------------------------------------------------|


Verse 2 Part 1
e|-------------------------------------------------------------------------|
B|-------------------------------------------------------------------------|
G|-------------------------------------------------------------------------|
D|------------------------------------------------3--3-3-3-3/5-------------|
A|-----3---5-------3---5---1---1h3------3---5-----1--1-1-1-1/3-------------|
D|-0-0---0---0-0-0---0---0---0------0-0---0---0-0--------------------------|
   . .   .   . . .   .   .   .      . .   .   . .

Verse 2 Part 2
e|-------------------------------------------------------------------------|
B|-------------------------------------------------------------------------|
G|-------------------------------------------------------------------------|
D|----------------------------------------------3--3-3-3-3/5---------------|
A|-----8---7---5---7---5---3h5--------8---7-----1--1-1-1-1/3---------------|
D|-0-0---0---0---0---0---0-----0-0--0---0---0-0----------------------------|
     .   .   .   .   .   .     .    .   .   . .

Chorus
e|-------------------------------------------------------------------------|
B|-------------------------------------------------------------------------|
G|-------------------------------------------------------------------------|
D|-10-10-10--10-10--10--10--10-10--10-10--10-10--10-10-10------------------|
A|-8--8--8---8--8---8---8---8--8---8--8---8--8---8--8--8-------------------|
D|-8--8--8---8--8---8---8---8--7---7--7---7--7---7--7--7-------------------|

strumming patterns rough only, listen to song for accuracy

e|-------------------------------------------------------------------------|
B|-------------------------------------------------------------------------|
G|-------------------------------------------------------------------------|
D|--------------------------------10-10-10---------------------------------|
A|-----3---5---7---8---10---7h8---8--8--8----10-10--7-7--------------------|
D|-0-0---0---0---0---0----0-----0-8--8--8--0-10-10--7-7--------------------|
     .   .   .   .   .    .     .          .  .  .  . .

e|-------------------------------------------------------------------------|
B|-------------------------------------------------------------------------|
G|-------------------------------------------------------------------------|
D|-10-10-10--10-10--10--10--10-10--10-10--10-10--10-10-10------------------|
A|-8--8--8---8--8---8---8---8--8---8--8---8--8---8--8--8-------------------|
D|-8--8--8---8--8---8---8---8--7---7--7---7--7---7--7--7-------------------|

strumming patterns rough only, listen to song for accuracy

e|-------------------------------------------------------------------------|
B|-------------------------------------------------------------------------|
G|------------------------------------------2-5-3-2-3-2--------------------|
D|--------------------------------10-10-10--------------5-3----------------|
A|-----3---5---7---8---10---7h8---8--8--8----------------------------------|
D|-0-0---0---0---0---0----0-----0-8--8--8----------------------------------|
     .   .   .   .   .    .     .

e|-------------------------------------------------------------------------|
B|-------------------------------------------------------------------------|
G|-------------------------------------------------------------------------|
D|-------------------------------------------------------------------------|
A|-1b--1b-1b--x-3-x-3--3-0-0-----------------------------------------------|
D|-------------------------------------------------------------------------|


e|----|--------------------------------------------------------------------|
B|----|--------------------------------------------------------------------|
G|----|--------------------------------------------------------------------|
D|----|--------------------------------------------------------------------|
A|----|-------5-------3-------3--------------------------------------------|
D|-3b-|-0-3-0---0-3-0---0-3-0---0-3-2*-------------------------------------|
        . . .   . . .   . . .   . .

Solo Rhythm 1
e|-------------------------------------------------------------------------|
B|-------------------------------------------------------------------------|
G|-------------------------------------------------------------------------|
D|---------10---------------10---------------10---------------10-----------|
A|-----8------8---8-----8---8--(x2)------8------8---8-----8---8--(x2)------|
D|-8-8---8------8---8-8---8-8--------7-7---7------7---7-7---7-7------------|
   . . . .  . . . . . . . .          . . . .  . . . . . . . .

Play this twice through


Solo
e|-------------------/10--8------------------------------------------------|
B|----------------------------6h8-6--5h6p5-5h6p5--5h6-5-3------------------|
G|--/5-----5h7--5-----------------------------------------5/---------------|
D|-------------------------------------------------------------------------|
A|-------------------------------------------------------------------------|
D|-------------------------------------------------------------------------|

e|---------------8b--8-6-5h6p5---------------------------------------------|
B|-6-5-6/10-8-10---------------8h10p8-6h8p6--5*----------------------------|
G|-------------------------------------------------------------------------|
D|-------------------------------------------------------------------------|
A|-------------------------------------------------------------------------|
D|-------------------------------------------------------------------------|


Solo Rhythm 2
e|-------------------------------------------------------------------------|
B|-------------------------------------------------------------------------|
G|-------------------------------------------------------------------------|
D|---------10----------------------10--------------10-10-10--10------------|
A|-----8------8---8--(x4)------8------8---8--(x3)--8--8--8---8-------------|
D|-8-8---8------8----------7-7---7------7----------7--7--7---7-------------|
   . .   .                 . .   .

Chorus
e|-------------------------------------------------------------------------|
B|-------------------------------------------------------------------------|
G|-------------------------------------------------------------------------|
D|-10-10-10--10-10--10--10--10-10--10-10--10-10--10-10-10------------------|
A|-8--8--8---8--8---8---8---8--8---8--8---8--8---8--8--8-------------------|
D|-8--8--8---8--8---8---8---8--7---7--7---7--7---7--7--7-------------------|

strumming patterns rough only, listen to song for accuracy

e|-------------------------------------------------------------------------|
B|-------------------------------------------------------------------------|
G|-------------------------------------------------------------------------|
D|--------------------------------10-10-10---------------------------------|
A|-----3---5---7---8---10---7h8---8--8--8----10-10--7-7--------------------|
D|-0-0---0---0---0---0----0-----0-8--8--8--0-10-10--7-7--------------------|
     .   .   .   .   .    .     .          .  .  .  . .

e|-------------------------------------------------------------------------|
B|-------------------------------------------------------------------------|
G|-------------------------------------------------------------------------|
D|-10-10-10--10-10--10--10--10-10--10-10--10-10--10-10-10------------------|
A|-8--8--8---8--8---8---8---8--8---8--8---8--8---8--8--8-------------------|
D|-8--8--8---8--8---8---8---8--7---7--7---7--7---7--7--7-------------------|

strumming patterns rough only, listen to song for accuracy

e|-------------------------------------------------------------------------|
B|-------------------------------------------------------------------------|
G|------------------------------------------2-5-3-2-3-2--------------------|
D|--------------------------------10-10-10--------------5-3----------------|
A|-----3---5---7---8---10---7h8---8--8--8----------------------------------|
D|-0-0---0---0---0---0----0-----0-8--8--8----------------------------------|
     .   .   .   .   .    .     .

e|-------------------------------------------------------------------------|
B|-------------------------------------------------------------------------|
G|-------------------------------------------------------------------------|
D|-------------------------------------------------------------------------|
A|-1b--1b-1b--x-3-x-3--3-0-0-----------------------------------------------|
D|-------------------------------------------------------------------------|


e|----|--------------------------------------------------------------------|
B|----|--------------------------------------------------------------------|
G|----|--------------------------------------------------------------------|
D|----|--------------------------------------------------------------------|
A|----|-------5-------3-------3--------------------------------------------|
D|-3b-|-0-3-0---0-3-0---0-3-0---0-3-2*-------------------------------------|
        . . .   . . .   . . .   . .

e|-------------------------------------------------------------------------|
B|-------------------------------------------------------------------------|
G|-------------------------------------------------------------------------|
D|-------------------------------------------------------------------------|
A|-------------------------------------------------------------------------|
D|-0-3b--0-0----0-0-2*-----------------------------------------------------|
   .     .      . .

| b  Bend note
| /  slide up
| \  slide down
| h  hammer-on
| p  pull-off
| ~  vibrato
| *  Pinch harmonic
| x  Mute string
| .  Palm mute
============================================================================
Добавлено: 05.05.2012
Другие материалы по этой песне:
  • Аккорды и текст

Страница создана 05.05.2012
http://primanota.ru/beyond-all-reason/a-thorn-in-my-heart-chords.htm
Привет, Гость.
Предлагаем пройти революционный курс по гитаре.
Подарок от PrimaNota.Ru, забирай!