PrimaNota.ru - самый крупный в мире бесплатный архив песенных текстов, аккордов, табулатур и нот


Beyonce Knowles - Resentment - текст песни, таба, видео

Регистрация Запомнить меня
Войти через:  Facebook Google Twitter Vk Yandex Mail.ru

Beyonce Knowles - Resentment - текст песни, таба, видео

Печатать
Просмотров: 377
Уроки эстрадного вокала в Санкт-Петербурге
-------------------------------------------------------------------------------
                             RESENTMENT - Beyonce Knowles
-------------------------------------------------------------------------------
Tabbed by: garamri for Ultimate-Guitar.com
Email: garam.ri@gmail.com

Tuning: Standard

Intro and Verse
   F                      D7                  Gm
e|---------------------|-------------------|-3-----3-----3-5-6-|
B|-6-----------6-------|-7-----------7-----|-----3---3---3-----|
G|-----5---5-------5---|-----5-----5-----5-|---3-------3-3-----|
D|---7---7---7---7-----|---7-----7-----7---|-5-----------5-----|
A|-8-----------8-------|-5-----5-----5-----|-------------------|
E|---------------------|-------------------|-------------------|

   F                     Gm                        Bb         Eb Bb
e|-5----------5h9p5----|-3h5p3------------3---|  |--------------------|
B|-6--------6----------|------6p3-------3---3-|  |-6-----------8-6----|
G|-5----5h7----------7-|----------3---3-------|  |-7---7---7---8-7----|1st
D|-7-------------------|------------5---------|  |---8---8---8-8-8----|&
A|-8-------------------|----------------------|  |-5------------------|2nd
E|---------------------|----------------------|  |--------------------|Repeat

3rd time around:
  Bb
e|-------------------|
B|-6-----------6-----|
G|-7---7---7-------7-|
D|---8---8---8---8---|
A|-5-----------------|
E|-------------------|


Chorus
  Bb         F                Gm                     Bb
e|-6-----6-|-6-----5h9p5----|-3h5p3------------3---|-----------------------------|
B|-6-----6-|-6----------8p6-|------6h3-------3---3-|-6-----------6-6-------------|
G|---------|----------------|----------3---3-------|-7---7---7---7-7-------------|
D|---------|----------------|------------5---------|---8---8---8-8-8-------------|
A|---------|----------------|----------------------|-5---------------------------|
E|---------|----------------|----------------------|-----------------------------|


Intro: F D7 Gm F Gm Bb (Eb Bb)

F                         D7
I Wish I could beLieve you, then I'd be alright
Gm                    F                      Gm         Bb
But now everything you told me really don't apply to the way I feel inside
F                 D7
Loving you was easy once upon a time
Gm           F                   Gm
Now my suspicions of you have multiplied
     Bb                   
And it's all because you lied

                  F          Gm
I only give you a hard time 
                            Bb
'Cause I can't go on and pretend like 
Bb                    F          Gm
I haven't tried to forget this
                          Bb
But I'm much too full of resentment

F                          D7
Just can't seem to get over the way you hurt me
Gm                        F                     Gm
Don't know how you gave another didn't mean a thing
Bb            (Eb Eb)
The very thing you gave to me

F                            D7                         Gm
I thought I could forgive you, and I know you've changed
                      F                    Gm
As much as I want to trust you, I know it ain't the same
        Bb            
And it's all because you lied

                       F     Gm
I only give you a hard time 
                         Bb 
'Cause I can't go on and pretend like
Bb                      F        Gm
 I haven't tried to forget this
                          Bb      (
But I'm much too full of resentment

[Key Change to F#] (altered riffs below)

B                 F#      G#m
I may never understand why 
                          B
I'm doing the best that I can ...
                                 F#           G#m
And I... I tried, and I tried to forget this,
                         B
But I'm much too full of resentment

F#                         D#7                  G#m
I'll always remember feeling like I was no good, 
                 F#                       G#m
Like I couldn't do it for you like your mistress could
        B
And it's all because you lied

F#                         D#7                    G#m
Loved you more than another, more than my own life
                            F#                     G#m
But that part of me I gave you... It was sacrificed
        B 
And it's all because you lied

B                 F#       G#m
I only give you a hard time 
                           B
'Cause I can't go on and pretend like 
          F                  G#m
I haven't tried to forget this
                           B
But i'm much too full of resentment

F#                       D#7
I know she was atrractive, but I was here first
G#m                      F#
Been riding with you for 6 years
             G#m          B             (E B)
Why did I deserve to be treated this way by you?
F#                              D#7
I know you're probably thinking, "what's up with B?"
G#m               F#               G#m
I been crying for too long, what did you do to me?

                 F#                              D#7
I used to be so strong, but now you took my soul...
     G#m         F#            G#m
I'm crying! Can't stop crying! Can't stop crying!
B          (E B) F#           G#m
You coulda told me you wasn't happy
  F#                            
I know you didn't wanna hurt me
G#m
But look what you've done to me now
B                    (E B)    F#              D#7           G#m
I gotta look at her in her eyes and see she's had half of me
                  F
How could you lie?

[fade out]


   F#                    D#7                  G#m
e|---------------------|-------------------|-4-----4-----4-6-7-|
B|-7-----------7-------|-8-----------8-----|-----4---4---4-----|
G|-----6---6-------6---|-----6-----6-----6-|---4-------4-4-----|
D|---8---8---8---8-----|---8-----8-----8---|-6-----------6-----|
A|-9-----------9-------|-6-----6-----6-----|-------------------|
E|---------------------|-------------------|-------------------|

   F#                     G#m                        B         E B
e|-6----------6h10p6---|-4h6p4------------4---|  |--------------------|
B|-7--------7----------|------7p4-------4---4-|  |-7-----------9-7----|
G|-6----6h8----------8-|----------4---4-------|  |-8---8---8---9-8----|1st
D|-8-------------------|------------6---------|  |---9---9---9-9-9----|&
A|-9-------------------|----------------------|  |-6------------------|2nd
E|---------------------|----------------------|  |--------------------|Repeat

3rd time around:
  B
e|-------------------|
B|-7-----------7-----|
G|-8---8---8-------8-|
D|---9---9---9---9---|
A|-6-----------------|
E|-------------------|


Chorus
  B         F#                G#m                     B
e|-7-----7-|-7----6h10p6----|-4h6p4------------4---|-----------------------------|
B|-7-----7-|-7----------9p7-|------7h4-------4---4-|-7-----------7-7-------------|
G|---------|----------------|----------4---4-------|-8---8---8---8-8-------------|
D|---------|----------------|------------6---------|---9---9---9-9-9-------------|
A|---------|----------------|----------------------|-6---------------------------|
E|---------|----------------|----------------------|-----------------------------|

Please don't hesitate to send corrections via email.
************************************

| /   slide up
| \   slide down
| h   hammer-on
| p   pull-off
| ~   vibrato
| +   harmonic
| x   Mute note
| b   Bend
| pb  Pre-bend
| br  Bend release
| pbr Pre-bend release
| brb Bend release bend

************************************
Добавлено: 24.10.2013
Другие материалы по этой песне:
  • Аккорды и текст

Страница создана 07.05.2012
http://primanota.ru/beyonce-knowles/resentment-chords.htm
Привет, Гость.
Предлагаем пройти революционный курс по гитаре.
Подарок от PrimaNota.Ru, забирай!