- самый крупный в мире бесплатный архив песенных текстов, аккордов, табулатур и нот

Beyonce Knowles - Deja Vu (feat. Jay-Z) - текст песни, бас-таба, видео

Регистрация Запомнить меня
Войти через:  Facebook Google Twitter Vk Yandex

Beyonce Knowles - Deja Vu (feat. Jay-Z) - текст песни, бас-таба, видео

Просмотров: 301
Авторы: Shawn Carter, Rodney Jerkins, Delisha Thomas, Makeba, Beyoncé

G --------------------------|
D -------------------3-4-5--|
B -----------------5--------|
E -3---3-3-3-3-3------------|
This is the main rift and will be played throughout the song more often the not.

G --------------------------|
D -------------------5-4-3--|
B -----------------5--------|
E -3---3-3-3-3-3------------|
this one will be played alternately with the first, but you play about 3 of the first 
and then 1 of this one usually, EXCEPT for the rift RIGHT before the rif that follows:

G ---14-15-17-14----14----14-|
D ---------------17----17----|
B ---------------------------|
E ---------------------------|
Its a very prominant rift that comes right before the following one:

G --------------------------------|-----------------------------2-4-2-1-0--|
D ---------5-3-5-----------4-2-4--|----------5-3-5------------4------------|
B -----3-5-------------3-5--------|------3-5--------------3-5--------------|
E -3-5-------------3-5------------|--3-5--------------3-5------------------|

Now, this is my first tab, and basically, i didnt give you the timing right, because its 
to hear the bass line of this song unless you have REALLY good bass on the computer, haha.
For the timings, id get the song on Youtube or if you have the track yourself play it, 
listen closely to the bass line. I basically just gave you the tabs, your job is to put 
in timing-wise.
and even the tabs may not be perfect, its my first attempt and it may have some kinks...
Добавлено: 09.01.2014
Другие материалы по этой песне:
  • Аккорды и текст

Страница создана 10.11.2013
Привет, Гость.
Предлагаем пройти революционный курс по гитаре.
Подарок от PrimaNota.Ru, забирай!