PrimaNota.ru - самый крупный в мире бесплатный архив песенных текстов, аккордов, табулатур и нот


Beverley Knight - Saviour - бас-таба, видео

Регистрация Запомнить меня
Войти через:  Facebook Google Twitter Vk Yandex Mail.ru

Beverley Knight - Saviour - бас-таба, видео

Печатать
Просмотров: 95
-------------------------------------------------------------------------------
                             Saviour - Beverley Knight
-------------------------------------------------------------------------------
Tabbed by: Koolbear
E-mail: 

Tuning: EADG

Ref : http://www.discogs.com/Beverley-Knight-Music-City-Soul/master/232398

All written in quarter note.
Alternate groove 1 & 2 while playing along. 
No particular difficulties 
Beware your groove and the ghost notes though :) Have fun!
  
Groove 1
 1st bar                2nd bar
G|-----|------|----|----||----12-|-----|----|----||
D|-----|-(x)8-|9---|----||1012---|-x10-|8---|----|| Repeat
A|8-10-|------|----|----||-------|-----|----|----||
E|-----|------|----|----||-------|-----|----|----||

Groove 2
  1st bar                2nd bar
G|-----|-----|----|----||8h101010|--8-|-----|----||
D|-----|--10-|8---|----||--------|----|10---|----||Repeat
A|8-10-|-----|----|----||--------|----|-----|----||
E|-----|-----|----|----||--------|----|-----|----||

Break
  1st bar               
G|-----|----|----|----||
D|-----|----|----|----||Repeat
A|10---|8---|7---|6---||
E|-----|----|----|----||




| /  slide up
| \  slide down
| h  hammer-on
| p  pull-off
| ~  vibrato
| +  harmonic
| x  Mute note
===============================================================================
Добавлено: 28.08.2015
Другие материалы по этой песне:
  • Аккорды и текст

Страница создана 28.08.2015
http://primanota.ru/beverley-knight/saviour-chords.htm
Привет, Гость.
Предлагаем пройти революционный курс по гитаре.
Подарок от PrimaNota.Ru, забирай!