PrimaNota.ru - самый крупный в мире бесплатный архив песенных текстов, аккордов, табулатур и нот


Betzefer - Downlow - текст песни, таба, бас-таба, видео

Регистрация Запомнить меня
Войти через:  Facebook Google Twitter Vk Yandex Mail.ru

Betzefer - Downlow - текст песни, таба, бас-таба, видео

Печатать
Просмотров: 200
Betzefer - Downlow
By Avishay Zabari

[www.betzefer.com]

Tunning: C,G,C,F,A,D


                                                                   
D||-------------------------------|-------------------------------|
A||-------------------------------|-------------------------------|
F||-------------------------------|-------------------------------|
C||-------------------------------|-------------------------------|
G||-------------------------------|-------------------------------|
C||--0--2-0-0--2-0-0--6-6-6-0-2-0-|--0--2-0-0--2-0-0--6-6-6-0-2-0-|


                                                                         
-------------------------------|----------------------------------------|
-------------------------------|----------------------------------------|
-------------------------------|----------------------------------------|
-------------------------------|----------------------------------------|
-------------------------------|----------------------------------------|
--0--2-0-0--2-0-0--6-6-6-0-2-0-|--0--2-0-0--2-0-13-13-13-13-13-13-13-13-|


                                                                
-------------------------------|-------------------------------|
-------------------------------|-------------------------------|
-------------------------------|-------------------------------|
-------------------------------|-------------------------------|
--0--2-0-0--2-0-0--6-6-6-0-2-0-|--0--2-0-0--2-0-0--6-6-6-0-2-0-|
--0--2-0-0--2-0-0--6-6-6-0-2-0-|--0--2-0-0--2-0-0--6-6-6-0-2-0-|


                                                                         
-------------------------------|----------------------------------------|
-------------------------------|----------------------------------------|
-------------------------------|----------------------------------------|
-------------------------------|----------------------------------------|
--0--2-0-0--2-0-0--6-6-6-0-2-0-|--0--2-0-0--2-0-13-13-13-13-13-13-13-13-|
--0--2-0-0--2-0-0--6-6-6-0-2-0-|--0--2-0-0--2-0-13-13-13-13-13-13-13-13-|


                                                                
-------------------------------|-------------------------------|
-------------------------------|-------------------------------|
-------------------------------|-------------------------------|
-------------------------------|-------------------------------|
-------------------------------|-------------------------------|
--0--2-0-0--2-0-0--6-6-6-0-2-0-|--0--2-0-0--2-0-0--6-6-6-0-2-0-|


                                                                         
-------------------------------|----------------------------------------|
-------------------------------|----------------------------------------|
-------------------------------|----------------------------------------|
-------------------------------|----------------------------------------|
-------------------------------|----------------------------------------|
--0--2-0-0--2-0-0--6-6-6-0-2-0-|--0--2-0-0--2-0-13-13-13-13-13-13-13-13-|


                                                                   
----------------------------------|-------------------------------|
----------------------------------|-------------------------------|
----------------------------------|-------------------------------|
------------------7-7-7-7-7-7-7-7-|-------------------------------|
--1-------1-------5-5-5-5-5-5-5-5-|-------------------------------|
--1p0-0-0-1p0-0-0-----------------|--0--2-0-0--2-0-1--1-0-1-1-1-0-|


                                                                
-------------------------------|-------------------------------|
-------------------------------|-------------------------------|
-------------------------------|-------------------------------|
-------------------------------|-------------------------------|
-------------------------------|-------------------------------|
--0--2-0-0--2-0-1--1-0-1-1-1-1-|--0--2-0-0--2-0-1--1-0-1-1-1-1-|


                                                                 
-------------------------------|--------------------------------|
-------------------------------|--------------------------------|
-------------------------------|--------------------------------|
-------------------------------|--------------------------------|
-------------------------------|--0--0--9-----9-----9-----9-----|
--0--2-0-0--2-0-1--1-0-1-1-1-1-|--0--0----10----10----10----10--|


                                                                  
--------------------------------|--------------------------------|
--------------------------------|--------------------------------|
--------------------------------|--------------------------------|
--------------------------------|--------------------------------|
--0--0--9-----9-----9-----------|--0--0--9-----9-----9-----------|
--0--0----10----10----10--0-0-0-|--0--0----10----10----10--0-0-0-|


                                                                
------------------------------|--------------------------------|
------------------------------|--------------------------------|
------------------------------|--------------------------------|
------------------------------|-----------------4/7-7-7-7-4----|
--0--0--9--------0--0--9------|-----------------2/5-5-5-5-2--3-|
--0--0----10-0-0-0--0----10---|--0--0-0-3-0-0-0--------------3-|


                                                           
-------------------------|--------------------------------|
-------------------------|--------------------------------|
-------------------------|--------------------------------|
-------4----------4------|-----------------4/7-7-7-7-4----|
----3--2-3--2--2--2--1---|-----------------2/5-5-5-5-2--3-|
----3----3--2--2-----1---|--0--0-0-3-0-0-0--------------3-|


                                                            
-------------------------|---------------------------------|
-------------------------|---------------------------------|
-------------------------|---------------------------------|
-------4----------4------|-----------------4/7-7-7-7-4--10-|
----3--2-3--2--2--2--1---|-----------------2/5-5-5-5-2--8--|
----3----3--2--2-----1---|--0--0-0-3-0-0-0-----------------|


                                                                   
--------------------------------|---------------------------------|
--------------------------------|---------------------------------|
--------------------------------|---------------------------------|
----10--10--10-7----------------|-----------------4/7-7-7-7-4--10-|
----8---8---8--5--6-6-6-5-6-5-6-|-----------------2/5-5-5-5-2--8--|
------------------6-6-6-5-6-5-6-|--0--0-0-3-0-0-0-----------------|


                                                                 
--------------------------------|-------------------------------|
--------------------------------|-------------------------------|
--------------------------------|-------------------------------|
----10--10--10-7----------------|-------------------------------|
----8---8---8--5--6-6-6-5-6-5-6-|--0--2-0-0--2-0-0--6-6-6-0-2-0-|
------------------6-6-6-5-6-5-6-|--0--2-0-0--2-0-0--6-6-6-0-2-0-|


                                                                     
------------------------------------|-------------------------------|
------------------------------------|-------------------------------|
------------------------------------|-------------------------------|
------------------------------------|-------------------------------|
------------------------------------|-------------------------------|
--0-0-0-0-0-0-0-0-0-0-0-0-------13/-|--0--2-0-0--2-0-0--6-6-6-0-2-0-|


                                                                
-------------------------------|-------------------------------|
-------------------------------|-------------------------------|
-------------------------------|-------------------------------|
-------------------------------|-------------------------------|
-------------------------------|-------------------------------|
--0--2-0-0--2-0-0--6-6-6-0-2-0-|--0--2-0-0--2-0-0--6-6-6-0-2-0-|


                                                                         
----------------------------------------|-------------------------------|
----------------------------------------|-------------------------------|
----------------------------------------|-------------------------------|
----------------------------------------|-------------------------------|
----------------------------------------|-------------------------------|
--0--2-0-0--2-0-13-13-13-13-13-13-13-13-|--0--2-0-0--2-0-1--1-0-1-1-1-0-|


                                                                
-------------------------------|-------------------------------|
-------------------------------|-------------------------------|
-------------------------------|-------------------------------|
-------------------------------|-------------------------------|
-------------------------------|-------------------------------|
--0--2-0-0--2-0-1--1-0-1-1-1-1-|--0--2-0-0--2-0-1--1-0-1-1-1-1-|


                                                                 
-------------------------------|--------------------------------|
-------------------------------|--------------------------------|
-------------------------------|--------------------------------|
-------------------------------|--------------------------------|
-------------------------------|--0--0--9-----9-----9-----9-----|
--0--2-0-0--2-0-1--1-0-1-1-1-1-|--0--0----10----10----10----10--|


                                                                  
--------------------------------|--------------------------------|
--------------------------------|--------------------------------|
--------------------------------|--------------------------------|
--------------------------------|--------------------------------|
--0--0--9-----9-----9-----------|--0--0--9-----9-----9-----------|
--0--0----10----10----10--0-0-0-|--0--0----10----10----10--0-0-0-|


                                                                
------------------------------|--------------------------------|
------------------------------|--------------------------------|
------------------------------|--------------------------------|
------------------------------|--------------------------------|
--0--0--9--------0--0--9------|--0--0--9-----9-----9-----9-----|
--0--0----10-0-0-0--0----10---|--0--0----10----10----10----10--|


                                                                  
--------------------------------|--------------------------------|
--------------------------------|--------------------------------|
--------------------------------|--------------------------------|
--------------------------------|--------------------------------|
--0--0--9-----9-----9-----------|--0--0--9-----9-----9-----------|
--0--0----10----10----10--0-0-0-|--0--0----10----10----10--0-0-0-|


                                                                
------------------------------|--------------------------------|
------------------------------|--------------------------------|
------------------------------|--------------------------------|
------------------------------|-----------------4/7-7-7-7-4----|
--0--0--9--------0--0--9------|-----------------2/5-5-5-5-2--3-|
--0--0----10-0-0-0--0----10---|--0--0-0-3-0-0-0--------------3-|


                                                           
-------------------------|--------------------------------|
-------------------------|--------------------------------|
-------------------------|--------------------------------|
-------4----------4------|-----------------4/7-7-7-7-4----|
----3--2-3--2--2--2--1---|-----------------2/5-5-5-5-2--3-|
----3----3--2--2-----1---|--0--0-0-3-0-0-0--------------3-|


                                                            
-------------------------|---------------------------------|
-------------------------|---------------------------------|
-------------------------|---------------------------------|
-------4----------4------|-----------------4/7-7-7-7-4--10-|
----3--2-3--2--2--2--1---|-----------------2/5-5-5-5-2--8--|
----3----3--2--2-----1---|--0--0-0-3-0-0-0-----------------|


                                                                   
--------------------------------|---------------------------------|
--------------------------------|---------------------------------|
--------------------------------|---------------------------------|
----10--10--10-7----------------|-----------------4/7-7-7-7-4--10-|
----8---8---8--5--6-6-6-5-6-5-6-|-----------------2/5-5-5-5-2--8--|
------------------6-6-6-5-6-5-6-|--0--0-0-3-0-0-0-----------------|


                                 
--------------------------------|
--------------------------------|
--------------------------------|
----10--10--10-7----------------|
----8---8---8--5--6-6-6-5-6-5-6-|
------------------6-6-6-5-6-5-6-|


                                                   
--------------------------------------------------|
--------------------------------------------------|
--------------------------------------------------|
--------------------------------------------------|
--------------------------------------------------|
--0-0-0-0-0-0-0-0-0-0-0-0-0-0-0-0-0-0-0-0-0-0-0-0-|


                                                   
--------------------------------------------------|
--------------------------------------------------|
--------------------------------------------------|
--------------------------------------------------|
--------------------------------------------------|
--0-0-0-0-0-0-0-0-0-0-0-0-0-0-0-0-0-0-0-0-0-0-0-0-|


                                                   
--------------------------------------------------|
--------------------------------------------------|
--------------------------------------------------|
--------------------------------------------------|
--------------------------------------------------|
--0-0-0-0-0-0-0-0-0-0-0-0-0-0-0-0-0-0-0-0-0-0-0-0-|


                                           
------------------------------------------|
------------------------------------------|
------------------------------------------|
------------------------------------------|
--------------------------2-1-2-1-3-2-3-2-|
--0-0-0-0-0-0-0-0-0-0-0-0-2-1-2-1-3-2-3-2-|


                                                   
--------------------------------------------------|
--------------------------------------------------|
--------------------------------------------------|
--------------------------------------------------|
--------------------------------------------------|
--0-0-0-0-0-0-0-0-0-0-0-0-0-0-0-0-0-0-0-0-0-0-0-0-|


                                                   
--------------------------------------------------|
--------------------------------------------------|
--------------------------------------------------|
--------------------------------------------------|
--------------------------------------------------|
--0-0-0-0-0-0-0-0-0-0-0-0-0-0-0-0-0-0-0-0-0-0-0-0-|


                                                   
--------------------------------------------------|
--------------------------------------------------|
--------------------------------------------------|
--------------------------------------------------|
--------------------------------------------------|
--0-0-0-0-0-0-0-0-0-0-0-0-0-0-0-0-0-0-0-0-0-0-0-0-|


                                                                   
------------------------------------------|---|---|---|---|---|---|
------------------------------------------|---|---|---|---|---|---|
------------------------------------------|---|---|---|---|---|---|
------------------------------------------|---|---|---|---|---|---|
--------------------------2-1-2-1-3-2-3-2-|---|---|---|---|---|---|
--0-0-0-0-0-0-0-0-0-0-0-0-2-1-2-1-3-2-3-2-|---|---|---|---|---|---|


                                                   
--------------------------------------------------|
--------------------------------------------------|
--------------------------------------------------|
--------------------------------------------------|
--------------------------------------------------|
--0-0-0-0-0-0-0-0-0-0-0-0-0-0-0-0-0-0-0-0-0-0-0-0-|


                                                   
--------------------------------------------------|
--------------------------------------------------|
--------------------------------------------------|
--------------------------------------------------|
--------------------------------------------------|
--0-0-0-0-0-0-0-0-0-0-0-0-0-0-0-0-0-0-0-0-0-0-0-0-|


                                                   
--------------------------------------------------|
--------------------------------------------------|
--------------------------------------------------|
--------------------------------------------------|
--------------------------------------------------|
--0-0-0-0-0-0-0-0-0-0-0-0-0-0-0-0-0-0-0-0-0-0-0-0-|


                                           
------------------------------------------|
------------------------------------------|
------------------------------------------|
------------------------------------------|
--------------------------2-1-2-1-3-2-3-2-|
--0-0-0-0-0-0-0-0-0-0-0-0-2-1-2-1-3-2-3-2-|


                                                   
--------------------------------------------------|
--------------------------------------------------|
--------------------------------------------------|
--------------------------------------------------|
--------------------------------------------------|
--0-0-0-0-0-0-0-0-0-0-0-0-0-0-0-0-0-0-0-0-0-0-0-0-|


                                                   
--------------------------------------------------|
--------------------------------------------------|
--------------------------------------------------|
--------------------------------------------------|
--------------------------------------------------|
--0-0-0-0-0-0-0-0-0-0-0-0-0-0-0-0-0-0-0-0-0-0-0-0-|


                                                   
--------------------------------------------------|
--------------------------------------------------|
--------------------------------------------------|
--------------------------------------------------|
--------------------------------------------------|
--0-0-0-0-0-0-0-0-0-0-0-0-0-0-0-0-0-0-0-0-0-0-0-0-|


                                                    
------------------------------------------|---|---||
------------------------------------------|---|---||
------------------------------------------|---|---||
------------------------------------------|---|---||
--------------------------2-1-2-1-3-2-3-2-|---|---||
--0-0-0-0-0-0-0-0-0-0-0-0-2-1-2-1-3-2-3-2-|---|---||

Solo:

----------------------------------|----------------------------------|
--7-7-7-7-7-7-7-7-7-7-7-7-7-7-7-7-|--7-7-7-7-7-7-7-7-7-7-7-7-7-7-7-7-|
--9b9b9b9b9b9b9b9b9b9b9b9b9b9b9b9b|--9b9b9b9b9b9b9b9b9b9b9b9b9b9b9b9b|
----------------------------------|----------------------------------|
----------------------------------|----------------------------------|
----------------------------------|----------------------------------|


                                                                      
----------------------------------|----------------------------------|
--7-7-7-7-7-7-7-7-7-7-7-7-7-7-7-7-|--7-7-7-7-7-7-7-7-7-7-7-7-7-7-7-7-|
--9b9b9b9b9b9b9b9b9b9b9b9b9b9b9b9b|--9b9b9b9b9b9b9b9b9b9b9b9b9b9b9b9b|
----------------------------------|----------------------------------|
----------------------------------|----------------------------------|
----------------------------------|----------------------------------|


                                                                      
----------------------------------|----------------------------------|
--7-7-7-7-7-7-7-7-7-7-7-7-7-7-7-7-|--7-7-7-7-7-7-7-7-7-7-7-7-7-7-7-7-|
--9b9b9b9b9b9b9b9b9b9b9b9b9b9b9b9b|--9b9b9b9b9b9b9b9b9b9b9b9b9b9b9b9b|
----------------------------------|----------------------------------|
----------------------------------|----------------------------------|
----------------------------------|----------------------------------|


                                                                      
----------------------------------|----------------------------------|
--7-7-7-7-7-7-7-7-7-7-7-7-7-7-7-7-|--7-7-7-7-7-7-7-7-7-7-7-7-7-7-7-7-|
--9b9b9b9b9b9b9b9b9b9b9b9b9b9b9b9b|--9b9b9b9b9b9b9b9b9b9b9b9b9b9b9b9b|
----------------------------------|----------------------------------|
----------------------------------|----------------------------------|
----------------------------------|----------------------------------|


                                                                      
----------------------------------|----------------------------------|
--7-7-7-7-7-7-7-7-7-7-7-7-7-7-7-7-|--7-7-7-7-7-7-7-7-7-7-7-7-7-7-7-7-|
--9b9b9b9b9b9b9b9b9b9b9b9b9b9b9b9b|--9b9b9b9b9b9b9b9b9b9b9b9b9b9b9b9b|
----------------------------------|----------------------------------|
----------------------------------|----------------------------------|
----------------------------------|----------------------------------|


                                                                      
----------------------------------|----------------------------------|
--7-7-7-7-7-7-7-7-7-7-7-7-7-7-7-7-|--7-7-7-7-7-7-7-7-7-7-7-7-7-7-7-7-|
--9b9b9b9b9b9b9b9b9b9b9b9b9b9b9b9b|--9b9b9b9b9b9b9b9b9b9b9b9b9b9b9b9b|
----------------------------------|----------------------------------|
----------------------------------|----------------------------------|
----------------------------------|----------------------------------|


                                                                       
----------------------------------|----------------------------------||
--7-7-7-7-7-7-7-7-7-7-7-7-7-7-7-7-|--7-7-7-7-7-7-7-7-7-7-7-7-7-7-7-7-||
--9b9b9b9b9b9b9b9b9b9b9b9b9b9b9b9b|--9b9b9b9b9b9b9b9b9b9b9b9b9b9b9b9b||
----------------------------------|----------------------------------||
----------------------------------|----------------------------------||
----------------------------------|----------------------------------||

GOOD LUCK.
Добавлено: 29.04.2012
Вам также может быть интересно:
Другие материалы по этой песне:

Страница создана 02.04.2012
http://primanota.ru/betzefer/downlow-chords.htm
Привет, Гость.
Предлагаем пройти революционный курс по гитаре.
Подарок от PrimaNota.Ru, забирай!