PrimaNota.ru - самый крупный в мире бесплатный архив песенных текстов, аккордов, табулатур и нот


Betzefer - Doomsday - таба, видео

Регистрация Запомнить меня
Войти через:  Facebook Google Twitter Vk Yandex Mail.ru

Betzefer - Doomsday - таба, видео

Печатать
Просмотров: 97
Doomsday By Betzefer

Drop C Tuneing

----------------------------------------
*
*  There are some mistakes at this tubs
*  Sorry..
*
----------------------------------------


.  - palm mute           /  - slide up to
\  - slide down to       ~  - vibrato
h  - hammer on           b  - Bend
p  - pull off            Suffixes for bend
t  - tap                 f  - full bend    h - half bend
ph - pinched harmonic    q  - quarter bend t - tap bend
*  - see comment         ^  - Hold bend    r release bend
x  - Stuccatto           ~  - vibrato bend
,  - slight palm mute    () - ghost note, sustained note
"  - tremolo note        <> - Trill


Intro
                                                                 . . . 
   |----------------|----------------|----------------|----------------|
   |----------------|----------------|----------------|----------------|
   |----------------|----------------|----------------|----------------|
   |----------------|----------------|----------------|----------------|
   |----------------|----------------|----------------|----------0-2-3-|
   |0---6-5-6-6-5-6-|0---6-5-6-6-5-6-|0---6-5-6-6-5-6-|----------0-2-3-|


                                                       ..........
   |----------------|----------------|----------------|----------------|
   |----------------|----------------|----------------|----------------|
2X |----------------|----------------|----------------|----------------|
   |----------------|----------------|----------------|----------------|
   |0---6-5-6-6-5-6-|0---6-5-6-6-5-6-|0---6-5-6-6-5-6-|----------------|
   |0---6-5-6-6-5-6-|0---6-5-6-6-5-6-|0---6-5-6-6-5-6-|0000000000-13\0-|


1st Verse
                                                    
   |----------------|----------------|----------------|----------------|
   |----------------|----------------|----------------|----------------|
   |----------------|----------------|----------------|----------------|
   |----------------|----------------|----------------|----------------|
   |----------------|----------------|----------------|----------------|
   |0---6-5-6-6-5-6-|0---6-5-6-6-5-6-|0---6-5-6-6-5-6-|3---3-2-3-3-2-3-|

                                                         . .     . .
   |----------------|----------------|----------------|----------------|
   |----------------|----------------|----------------|----------------|
   |----------------|----------------|----------------|----------------|
   |----------------|----------------|----------------|4-----4-7-----7-|
   |----------------|----------------|----------------|2-----2-5-----5-|
   |0---6-5-6-6-5-6-|0---6-5-6-6-5-6-|0---6-5-6-6-5-6-|--0-0-----0-0---|

                                                       ...............
   |----------------|----------------|----------------|----------------|
   |----------------|----------------|----------------|----------------|
   |----------------|----------------|----------------|----------------|
   |----------------|----------------|----------------|----------------|
   |0---6-5-6-6-5-6-|0---6-5-6-6-5-6-|0---6-5-6-6-5-6-|----------------|
   |0---6-5-6-6-5-6-|0---6-5-6-6-5-6-|0---6-5-6-6-5-6-|000000000000000-|

                                                         . .     . .
   |----------------|----------------|----------------|----------------|
   |----------------|----------------|----------------|----------------|
   |----------------|----------------|----------------|----------------|
   |----------------|----------------|----------------|4-----4-7-----7-|
   |----------------|----------------|----------------|2-----2-5-----5-|
   |0---6-5-6-6-5-6-|0---6-5-6-6-5-6-|0---6-5-6-6-5-6-|--0-0-----0-0---|


      . .     . .      ...     ...      ...     
   |----------------|----------------|----------------|
   |----------------|----------------|----------------|
   |----------------|----------------|----------------|      ??
   |4-----4-7-----7-|----------------|----------------|
   |2-----2-5-----5-|2-----2-5-----5-|2-------0-3-5-6-|
   |--0-0-----0-0---|--000-----000---|--000---0-3-5-6-|


2X Chorse
                                     
   |----------------|----------------|----------------|----------------|
   |----------------|----------------|----------------|----------------|
   |----------------|----------------|----------------|----------------|
   |----------------|----------------|----------------|--7---7-7-5-7-7-|
   |--6---6-5-0---0-|6---6-5-6-5-----|5-6-6-5-0-------|6-5---5-5-2-5-5-|
   |--6---6-5-0---0-|6---6-5-6-5-0-0-|5-6-6-5-0-------|6---------------|

                                 . .  PH
   |----------------|----------------|----------------|----------------|
   |----------------|----------------|----------------|----------------|
   |----------------|----------------|----------------|----------------|
   |----------------|----------------|3~~-------------|----------------|
   |--6---6-5-0---0-|6---6-6-5-6-----|----5-2-5-2-----|----------------|
   |--6---6-5-0---0-|6---6-6-5-6-0-0-|------------3-0-|--0-3-0-6-------|


2st Verse

                                                       ..........
   |----------------|----------------|----------------|----------------|
   |----------------|----------------|----------------|----------------|
   |----------------|----------------|----------------|----------------|
   |----------------|----------------|----------------|----------------|
   |0---6-5-6-6-5-6-|0---6-5-6-6-5-6-|0---6-5-6-6-5-6-|----------------|
   |0---6-5-6-6-5-6-|0---6-5-6-6-5-6-|0---6-5-6-6-5-6-|0000000000-13\0-|

                                                       ... . ...
   |----------------|----------------|----------------|----------------|
   |----------------|----------------|----------------|----------------|
   |----------------|----------------|----------------|----------------|
   |----------------|----------------|----------------|----------------|
   |0---6-5-6-6-5-6-|0---6-5-6-6-5-6-|0---6-5-6-6-5-6-|----------------|
   |0---6-5-6-6-5-6-|0---6-5-6-6-5-6-|0---6-5-6-6-5-6-|000-0-000--13\0-|


   |----------------|----------------|----------------|----------------|
   |----------------|----------------|----------------|----------------|
   |----------------|----------------|----------------|----------------|
   |----------------|----------------|----------------|----------------|
   |----------------|----------------|----------------|----------------|
   |0---6-5-6-6-5-6-|0---6-5-6-6-5-6-|0---6-5-6-6-5-6-|3---3-2-3-3-2-3-|

                                                         . .     . .
   |----------------|----------------|----------------|----------------|
   |----------------|----------------|----------------|----------------|
   |----------------|----------------|----------------|----------------|
   |----------------|----------------|----------------|4-----4-7-----7-|
   |----------------|----------------|----------------|2-----2-5-----5-|
   |0---6-5-6-6-5-6-|0---6-5-6-6-5-6-|0---6-5-6-6-5-6-|--0-0-----0-0---|

      . .     . .      ...     ...      ...     
   |----------------|----------------|----------------|
   |----------------|----------------|----------------|
   |----------------|----------------|----------------|
   |4-----4-7-----7-|----------------|----------------|
   |2-----2-5-----5-|2-----2-5-----5-|2-------0-3-5-6-|
   |--0-0-----0-0---|--000-----000---|--000---0-3-5-6-|


2X Chorse
                                     
   |----------------|----------------|----------------|----------------|
   |----------------|----------------|----------------|----------------|
   |----------------|----------------|----------------|----------------|
   |----------------|----------------|----------------|--7---7-7-5-7-7-|
   |--6---6-5-0---0-|6---6-5-6-5-----|5-6-6-5-0-------|6-5---5-5-2-5-5-|
   |--6---6-5-0---0-|6---6-5-6-5-0-0-|5-6-6-5-0-------|6---------------|

                                 . .  PH
   |----------------|----------------|----------------|----------------|
   |----------------|----------------|----------------|----------------|
   |----------------|----------------|----------------|----------------|
   |----------------|----------------|3~~-------------|----------------|
   |--6---6-5-0---0-|6---6-6-5-6-----|----5-2-5-2-----|----------------|
   |--6---6-5-0---0-|6---6-6-5-6-0-0-|------------3-0-|--0-3-0-6-------|


Solo Riff

    . . . . . . . .  ..  . . . . . .  . . . . . . . .  ..  . . . . . .  
   |----------------|----------------|----------------|----------------|
   |----------------|----------------|----------------|----------------|
   |----------------|----------------|----------------|----------------|
   |----------------|----------------|----------------|----------------|
   |----------------|00--0-----------|----------------|00--0-----------|
   |0-0-0-0-0-0-0-0-|00--0-0-0-0-0-0-|0-0-0-0-0-0-0-0-|00--0-0-0-0-0-0-|

    .....            .....            .....            
   |----------------|----------------|----------------|----------------|
   |----------------|----------------|----------------|----------------|
2X |----------------|----------------|----------------|----------------|
   |----------------|----------------|----------------|----------------|
   |------555-0-555-|------555-0-555-|------555-0-555-|000111444-1h4p1-|
   |00000-----------|00000-----------|00000-----------|----------------|

                     .....            .....  
   |----------------|----------------|----------------|----------------|
   |----------------|----------------|----------------|----------------|
   |----------------|----------------|----------------|----------------|
   |----------------|----------------|----------------|----------------|
   |------555-0-555-|------555-0-555-|------555-0-555-|000111444-1h4p1-|
   |----------------|00000-----------|00000-----------|----------------|
Добавлено: 05.11.2013
Вам также может быть интересно:
Другие материалы по этой песне:
  • Аккорды и текст

Страница создана 05.11.2013
http://primanota.ru/betzefer/doomsday-chords.htm
Привет, Гость.
Предлагаем пройти революционный курс по гитаре.
Подарок от PrimaNota.Ru, забирай!