PrimaNota.ru - самый крупный в мире бесплатный архив песенных текстов, аккордов, табулатур и нот


Between The Buried And Me - Territory - текст песни, бас-таба, видео

Регистрация Запомнить меня
Войти через:  Facebook Google Twitter Vk Yandex Mail.ru

Between The Buried And Me - Territory - текст песни, бас-таба, видео

Печатать
Просмотров: 114
Tuning: C# Standard
high to low (E, B, F#, C#)


Drum Intro.


|---------|
|---------|
|-7p6-6-6-|
|---------|x8

|-----------|
|-----------|
|-----------|
|-0~--------|x4

|-----------------------------|
|-----------------------------|
|-----------------------------|
|-1-1-11-1-1-11-1-1-11-1-1-11-|x2


|-----------|
|-----------|
|-----------|
|-0~--------|


Drum break.


|---------------------------------------------|
|---------------------------------------------|
|---------------------------------------------|
|-4-1-1-1-4-1-1-1-0~----4-1-1-1-4-1-1-1-5~----|x2


|-----------------|
|-----------------|
|-----------------|
|-5-1-0-0-5-1-0-0-|x8


|---------------------------------------------|
|---------------------------------------------|
|---------------------------------------------|
|-4-1-1-1-4-1-1-1-0~----4-1-1-1-4-1-1-1-5~----|x2

|-------------------------|
|-------------------------|
|-------------------------|
|-1-111-1-111-1-111-1-111-|x2


|-----------------|
|-----------------|
|-----------------|
|-5-1-0-0-5-1-0-0-|x8


|---------------------------------------------|
|---------------------------------------------|
|---------------------------------------------|
|-4-1-1-1-4-1-1-1-0~----4-1-1-1-4-1-1-1-5~----|x2

|-----------|
|-----------|
|-----------|
|-0~--------|


|-------------------|
|-------------------|
|-6-6----6-6-6------|
|-----00-------0000-|x4

|----------------|
|----------------|
|----------------|
|-2~---3~---6~---|x4


|-------------------|
|-------------------|
|-6-6----6-6-6------|
|-----00-------0000-|x4


|-----------------|
|-----------------|
|-----------------|
|-0-0-0-1-0-0-0-1-|x3
                        x2
|--------------|
|--------------|
|-----6--7--8--|
|-0-0----------|


|-----------------------|
|-----------------------|
|-7-4~--8-5~--7-4~------|
|-------------------0~--|x2


|-----------------|
|-----------------|
|-----------------|
|-0-0-0-1-0-0-0-1-|x3
                      
|--------------|
|--------------|
|-----6--7--8--|
|-0-0----------|


|---------------------------------|
|---------------------------------|
|-7p6-6-6-6-6-7p6-6-6-7p6-7p6-7p6-|
|---------------------------------|x4

|-------------------------------|
|-------------------------------|
|-------------------------------|
|-0-0---0-0---0-0---0-0---0-0-0-|x4


Drum Break.


|-----------------|
|-----------------|
|-----------------|
|-5-1-0-0-5-1-0-0-|x16


|---------------------------------------------|
|---------------------------------------------|
|---------------------------------------------|
|-4-1-1-1-4-1-1-1-0~----4-1-1-1-4-1-1-1-5~----|x2

|-------------------|
|-------------------|
|-------------------|
|-0~----------------|


Guitar Break.


|-----------------|
|-----------------|
|-----------------|
|-0-0-0-1-0-0-0-1-|x16
Добавлено: 12.07.2012
Другие материалы по этой песне:
  • Аккорды и текст

Страница создана 24.05.2012
http://primanota.ru/between-the-buried-and-me/territory-chords.htm
Привет, Гость.
Предлагаем пройти революционный курс по гитаре.
Подарок от PrimaNota.Ru, забирай!